Metallica - One Chords & Tabs

 

One Chords & Tabs

Metallica Chords & Tabs

Version: 10 Type: Tab 0 ratings
1 star 2 stars 3 stars 4 stars 5 stars
comments

One Tab

   
E,B,G,D,A,E
Repeat 2 times!
---------------------|------------------------------------|
---------------------|------------------------------------|
---------------------|-0----------------------------------|
---4---0-----4-----0-|------4----0----4-----0----4----0---|
-2---2---------------|----2----2----0----0----------------|
-----------3----3----|-------------------------3----3-----|
[ Tab from: http://www.guitartabs.cc/tabs/m/metallica/one_tab_ver_10.html ]
---------|---------------------------------------------|---
---------|--------------3p2------3p2-----3--3p2--------|---
---------|-------2--4b--------4-------2-----------4----|---
---------|--2h4----------------------------------------|---
---2---2-|---------------------------------------------|---
-0---2---|---------------------------------------------|---

---------------------------------------------------------|
-------------------------------------------------2h3---2-|
-11p9------9/7---7p6p0-----6p4p0---2----/4---/4----------|
-------12---------------7--------------------------------|
---------------------------------------------------------|
---------------------------------------------------------|

Hope you have fun with it!
Comments