Metallica - One Chords & Tabs

 

One Chords & Tabs

Metallica Chords & Tabs

Version: 4 Type: Bass Tab 0 ratings
1 star 2 stars 3 stars 4 stars 5 stars
comments

One Bass Tab

   
                                 ONE (Bassline)
                            As recorded by Metallica
                  (From the 1988 Album ...AND JUSTICE FOR ALL)

Words and Music by Hetfield & Ulrich
Arranged by Hetfield & Ulrich
Transcribed by Zac (&Drums) for www.mikesguitarsite.co.uk

              Q=98      1.
 4/4                    2/4
  Gtr II
|---------||-----------|------||
|---------||o----------|-----o||
|---------||o----------|-----o||
|---------||-----------|------||


  2.
 2/4     4/4
  Gtr II
|-------|-------------|---------------|---------------|--------------|
|--x--x-|-x---x--x-x--|-x-x---x--x-x--|-x-x---x--x-x--|-x---x--x-x---|
|-------|-------------|---------------|---------------|--------------|
|-------|-------------|---------------|---------------|--------------|


                                                 B
                                                 Gtr I
                                                 |  |  |  |
                                                 o  /  /  /

|-------------|---------------|---------------|--------------|
|-x---x--x-x--|-x-x---x--x-x--|-x-x---x--x-x--|--x--x--x--x--|
|-------------|---------------|---------------|--------------|
|-------------|---------------|---------------|--------------|


 3/4
  Gtr I
|----------------|-------------|----------------|-------------|
|----------------|-------------|----------------|-------------|
|-2---2-2h4---2--|-------------|-2---2-2h4---2--|-------------|
|----------------|-3---3-0-2-3-|----------------|-3---3-0-2-3-|
|
| Gtr II
|----------------|-------------|----------------|-------------|
|-x---x---x-x----|-x---x-x---x-|-x---x---x-x----|-x---x-x---x-|
|----------------|-------------|----------------|-------------|
|----------------|-------------|----------------|-------------|


|----------------|-------------|-------------|-----------|--------------||
|----------------|-------------|-------------|-----------|--------------||
|-2---2-2h4---2--|-0---0-0h2-0-|-------------|---------4-|----5-----7---||
|----------------|-------------|-3---3-0-2-3-|-0---0-2---|-3----3-5-----||
|
|----------------|-------------|-------------|-----------|--------------||
|-x---x---x-x----|-x---x---x-x-|-x---x-x---x-|-x---x-x-x-|-x--x---x-----||
|----------------|-------------|-------------|-----------|--------------||
|----------------|-------------|-------------|-----------|--------------||


|--------------7----------|------------|
|-----7-------------------|----5-------|
|-5---------5----/7-------|------------|
|---------------------8\--|-3----3-5-3-|
|
|-------------------------|------------|
|-x-x---(x)----x--x-x-----|-x----x-x-x-|
|-------------------------|------------|
|-------------------------|------------|


|---------------|----------------|-------7------------|
|----3---3------|-----2---2------|---7----------------|
|---------------|---2---2-----2/-|-5---5---/7---------|
|-1----1-----1--|-0--------------|--------------8\----|
|
|---------------|----------------|--------------------|
|-x----x-x-x----|-x-------x-x-x--|-x-----x--x-x-------|
|---------------|----------------|--------------------|
|---------------|----------------|--------------------|


|---------------|---------------|-------------||---------------|--------------|
|----5----------|----3---3------|-------------||o--------------|--------------|
|---------------|---------------|-------2h3---||o-2---2-4---2--|--------------|
|-3----3-5---3--|-1----1-----1--|-0---0-------||---------------|-3---3-0-2-3--|
|
|---------------|---------------|-------------||---------------|--------------|
|-x----x-x-x----|-x----x-x-x----|-x---x---x-x-||o-x---x-x-x----|-x---x-x---x--|
|---------------|---------------|-------------||o--------------|--------------|
|---------------|---------------|-------------||---------------|--------------|


|-----------------|--------------|----------------|-------------|--------------|
|-----------------|--------------|----------------|-------------|--------------|
|-2-(2)--2-4---2--|------0-2h5---|-2---2-2h4---2--|-0---0-0h2-0-|--------------|
|-----------------|-3--3---------|----------------|-------------|-3---3-0-2-3--|
|
|-----------------|--------------|----------------|-------------|--------------|
|-x------x-x-x----|-x----x---x-x-|-x---x---x-x----|-x---x---x-x-|-x---x-x---x--|
|-----------------|--------------|----------------|-------------|--------------|
|-----------------|--------------|----------------|-------------|--------------|


 2/4         3/4
|-----------|----------------|-------------|----------------|---------------|
|-----------|----------------|-------------|----------------|---------------|
|---2----2--|-2---2-2h4---2--|-------------|-2---2-2h4---2--|------0-2h5----|
|-0----2----|----------------|-3---3-0-2-3-|----------------|-3--3----------|
|
|-----------|----------------|-------------|----------------|---------------|
|-x-x--x-x--|-x---x---x-x----|-x---x-x---x-|-x---x---x-x----|-x----x---x-x--|
|-----------|----------------|-------------|----------------|---------------|
|-----------|----------------|-------------|----------------|---------------|


                                               2/4
|----------------|-------------|--------------|-----------||
|----------------|-------------|--------------|-----------||
|-2---2-2h4---2--|-0---0-0h2-0-|--------------|-----------||
|----------------|-------------|-3---3-0-2-3--|-0----2-0--||
|
|----------------|-------------|--------------|-----------||
|-x---x---x-x----|-x---x---x-x-|-x---x-x-x----|-x-x--x-x--||
|----------------|-------------|--------------|-----------||
|----------------|-------------|--------------|-----------||


 6/4                                              3/4
|----------------------|------------------------||-------7----------|
|----------------------|------------------5---6-||---7--------------|
|--------2---------2---|------2-4-2-----3---4---||-5---5---/7-------|
|-3----5---5-3--2------|-5----------5-----------||--------------8\--|
|
|----------------------|------------------------||------------------|
|-x--x---x---x--x--x-x-|-x--x---x---x-x-x---x---||-x-----x--x-x-----|
|----------------------|------------------------||------------------|
|----------------------|------------------------||------------------|


|------------|---------------|-----------------|
|----5-------|----3---3------|-----2---2-------|
|------------|---------------|---2---2-----2---|
|-3----3-5-3-|-1----1-----1--|-0---------------|
|
|------------|---------------|-----------------|
|-x----x-x-x-|-x----x-x-x----|-x-----x-x-x-x-x-|
|------------|---------------|-----------------|
|------------|---------------|-----------------|


 1.
|-------7----------|-------------|
|---7--------------|----5--------|
|-5---5---/7-------|-------------|
|--------------8\--|-3----3-5-3--|
|
|------------------|-------------|
|-x-----x--x-x-----|-x----x-x-x--|
|------------------|-------------|
|------------------|-------------|


                                  2.
|---------------|--------------||-------7----------|
|----3---3------|-------------o||---7--------------|
|---------------|-------2h3---o||-5---5---/7-------|
|-1----1-----1--|-0---0--------||--------------8\--|
|
|---------------|--------------||------------------|
|-x----x-x-x----|-x---x---x-x-o||-x-----x--x-x-----|
|---------------|-------------o||------------------|
|---------------|--------------||------------------|


|------------|---------------|----------------|
|----5-------|----3---3------|-----2---2------|
|------------|---------------|---2---2-----2--|
|-3----3-5-3-|-1----1-----1--|-0--------------|
|
|------------|---------------|----------------|
|-x----x-x-x-|-x----x-x-x----|-x-----x-x-x-x--|
|------------|---------------|----------------|
|------------|---------------|----------------|


|-------7----------|------------|------------|
|---7--------------|----5-------|----3---3---|
|-5---5---/7-------|------------|------------|
|--------------8\--|-3----3-5-3-|-1----1---1-|
|
|------------------|------------|------------|
|-x-----x--x-x-----|-x----x-x-x-|-x----x-x-x-|
|------------------|------------|------------|
|------------------|------------|------------|


|-----------------|-------7-----------|
|-----2---2-------|---7---------------|
|---2---2-----2---|-5---5---/7--------|
|-0---------------|--------------8\---|
|
|-----------------|-------------------|
|-x-------x-x-x-x-|-x-----x--x-x------|
|-----------------|-------------------|
|-----------------|-------------------|


|--------------|------------|-----------------||
|----5---------|----3---3---|-------2---2-----||
|--------------|------------|---2-----2-----2-||
|-3----3-5---3-|-1----1---1-|-0---------------||
|
|--------------|------------|-----------------||
|-x----x-x-x---|-x----x-x-x-|-x-x-x-x-x-x-x-x-||
|--------------|------------|-----------------||
|--------------|------------|-----------------||


 6/4
|----------------------|------------------------|
|----------------------|------------------------|
|--------2---------2---|------2-4-2-----2--4----|
|-3----5---5-3--2------|-5----------5-----------|
|
|----------------------|------------------------|
|-x--x---x---x--x--x-x-|-x--x---x---x-x-x--x----|
|----------------------|------------------------|
|----------------------|------------------------|


|----------------------|----------------------|--------------------|
|----------------------|----------------------|--------------------|
|--------2---------2---|------2-4-2-----2--4--|-------2---------2--|
|-3----5---5-3--2------|-5----------5---------|-3---5---5-3--2-----|
|
|----------------------|----------------------|--------------------|
|-x--x---x---x--x--x-x-|-x--x---x---x-x-x--x--|-x---x-x-x-x--x--x--|
|----------------------|----------------------|-x---x-x-x-x--------|
|----------------------|----------------------|--------------------|


 3/4
|------------|-------------|------------|------------|-------------|
|------------|-------------|------------|------------|-------------|
|----------5-|-------------|-2--2---2---|-3--3---3---|---------5---|
|-5--8-5-5---|-3-3-3-5-3-0-|------2---2-|------3---3-|-5-5-8-5---5-|
|
|------------|-------------|------------|------------|-------------|
|-x--x---x---|-x---x---x---|-x--x---x---|-x--x---x-x-|-x---x-x-x---|
|------------|-------------|------------|------------|-------------|
|------------|-------------|------------|------------|-------------|


|-------------|------------|---------------|-------------|-------------|
|-------------|------------|---------------|-----7-------|-------------|
|-------------|-2--2---2---|-3-3-3-3---3---|---5---5-----|-------------|
|-3-3-3-5-3-0-|------2---2-|---------3---3-|-5-------5-5-|-3-3-3-5-3-0-|
|
|-------------|------------|---------------|-------------|-------------|
|-x---x---x---|-x--x---x-x-|-x-x-----x-x---|-x-x---x-x---|-x---x---x---|
|-------------|------------|---------------|-------------|-------------|
|-------------|------------|---------------|-------------|-------------|


|------------|---------------|-------------|-------------|------------|
|------------|---------------|-----7-------|-------------|------------|
|-2--2---2---|-3-3-3-3---3---|---5---5-----|-------------|-2--2---2---|
|------2---2-|---------3---3-|-5-------5-5-|-3-3-3-5-3-0-|------2---2-|
|
|------------|---------------|-------------|-------------|------------|
|-x--x---x---|-x-----x---x-x-|-x---x---x---|-x---x---x---|-x--x---x---|
|------------|-----------x-x-|-------------|-------------|------------|
|------------|---------------|-------------|-------------|------------|


|---------------|---------------------|---------------------|
|---------------|---------------7-----|---------------7-----|
|-3-3-3-3---3/--|-7-----7-----7---7-0-|-5-----5-----5---5\--|
|---------3-----|---------------------|---------------------|
|
|---------------|---------------------|---------------------|
|-x---------x---|-x-x-x-x-x-x-x---x-x-|-x-x-x-x-x-x-x---x---|
|---------------|---------------------|---------------------|
|---------------|---------------------|---------------------|


|---------------------|-----------------------|
|---------------------|-----------------------|
|-2---------------2---|-3-----3-----3---3/----|
|---------------2---2-|---------------3-------|
|
|---------------------|-----------------------|
|-x-x-x-x-x-x-x---x---|-x-x-x-x-x-x-x---x-----|
|---------------------|-----------------------|
|---------------------|-----------------------|


|---------------------|---------------------|---------------------|
|---------------7-----|---------------7-----|---------------------|
|-7-----7-----7---7-0-|-5-----5-----5---5\--|-2-----------2---2---|
|---------------------|---------------------|---------------2---2-|
|
|---------------------|---------------------|---------------------|
|-x-x-x-x-x-x-x---x---|-x-x-x-x-x-x-x---x---|-x-x-x-x-x-x-x---x---|
|---------------------|---------------------|---------------------|
|---------------------|---------------------|---------------------|


                         4/4
|-----------------------|--------------------------------|
|-----------------------|--------------------------------|
|-3-----3---3---3---3---|-7------------------------------|
|-----------------3---3-|-0------------------------------|
|
|-----------------------|--------------------------------|
|-x-x-x-x-x---x-x---x---|-x-x-x-x-x-x-x--x-x-x-x-x-x-x---|
|-----------------------|--------------------------------|
|-----------------------|--------------------------------|

[ Tab from: http://www.guitartabs.cc/tabs/m/metallica/one_btab_ver_4.html ]
|---------------------------------||
|---------------------------------||
|-(7)-----------------------------||
|-(0)-----------------------------||
|
|---------------------------------||
|--x--x-x-x-x-x-x--x-x-x-x-x-x-x--||
|---------------------------------||
|---------------------------------||


|-------------------------------|-------------------------------|
|-------------------------------|-------------------------------|
|-7-7-7-7-7-7----7-7-7-7-7-7----|-7-7-7-7-7-7----7-7-7-7-7-7----|
|-------------0--------------0--|-------------0--------------0--|
|
|-------------------------------|-------------------------------|
|-x-x-x-x-x-x-x--x-x-x-x-x-x-x--|-x-x-x-x-x-x-x--x-x-x-x-x-x-x--|
|-------------------------------|-------------------------------|
|-------------------------------|-------------------------------|


                                                                    5x
|-------------------------------||----------------------------------||
|-------------------------------||o--------------------------------o||
|-7-7-7-7-7-7-7--7-7-7-7-7-7-7--||o-7-7-7-7-7-7-7--7-7-7-7-7-7-----o||
|-------------0--------------0--||--------------0--------------0-1--||
|
|                                                                   5x
|-------------------------------||----------------------------------||
|-x-x-x-x-x-x-x--x-x-x-x-x-x-x--||o-x-x-x-x-x-x-x--x-x-x-x-x-x-x-x-o||
|-------------------------------||o--------------------------------o||
|-------------------------------||----------------------------------||


||--------------------------------|---------------------------------|
||o-------------------------------|---------------------------------|
||o-7-7-7-7-7-7----7-7-7-7-7-7----|-7-7-7-7-7-7----7-7-7-7-7-7------|
||--------------0--------------0--|-------------0--------------0-1--|
|
||--------------------------------|---------------------------------|
||o-x-x-x-x-x-x-x--x-x-x-x-x-x-x--|-x-x-x-x-x-x-x--x-x-x-x-x-x-x-x--|
||o-------------------------------|---------------------------------|
||--------------------------------|---------------------------------|


|-------------------------------|------------------------------------|
|-------------------------------|------------------------------------|
|-7-7-7-7-7-7----7-7-7-7-7-7----|-7-7-7-7-7-7----7-7-7-7-7-7---------|
|-------------0--------------0--|-------------0--------------0-----1-|
|
|-------------------------------|------------------------------------|
|-x-x-x-x-x-x-x--x-x-x-x-x-x-x--|-x-x-x-x-x-x-x--x-x-x-x-----x-x-x-x-|
|-------------------------------|------------------------------------|
|-------------------------------|------------------------------------|


  1.
              ~                                ~
|--------------------------------|--------------------------------|
|--------------------------------|--------------------------------|
|-7-7-7-7-7-7-7--7-7-7-7-7-7-7s8-|-7-7-7-7-7-7-5--7-7-7-7-7-7-5s8-|
|--------------------------------|--------------------------------|
|
|--------------------------------|--------------------------------|
|-x-x-x-x-x-x-x--x-x-x-x-x-x-x-x-|-x-x-x-x-x-x-x--x-x-x-x-x-x-x-x-|
|--------------------------------|--------------------------------|
|--------------------------------|--------------------------------|


              ~                                ~
|--------------------------------|---------------------------------||
|--------------------------------|--------------------------------o||
|-7-7-7-7-7-7-7--7-7-7-7-7-7-7s8-|-7-7-7-7-7-7-5--7-7-7-7-7-7-2---o||
|--------------------------------|------------------------------1--||
|
|--------------------------------|---------------------------------||
|-x-x-x-x-x-x-x--x-x-x-x-x-x-x-x-|-x-x-x-x-x-x-x--x-x-x-x-x-x-x-x-o||
|--------------------------------|--------------------------------o||
|--------------------------------|---------------------------------||


    2.216
||-----------------------|-----------------------|
||o----------------------|-----------------------|
||o-------------2--------|---------2----------3--|
||--0-0-0-0-0-0----0-0-0-|-0-0---0----0-0---0----|
|
||-----------------------|-----------------------|
||o-x-----x-----x--x-----|-x---x---x--x---x---x--|
||o----------------------|-----------------------|
||-----------------------|-----------------------|


|----------------------|-----------------------|
|----------------------|-----------------------|
|-------------2--------|---------2----------3--|
|-0-0-0-0-0-0----0-0-0-|-0-0---0----0-0---0----|
|
|----------------------|-----------------------|
|-x-----x-----x--x-----|-x---x---x--x---x---x--|
|----------------------|-----------------------|
|----------------------|-----------------------|


|----------------------|-----------------------|
|----------------------|-----------------------|
|-------------2--------|---------2----------3--|
|-0-0-0-0-0-0----0-0-0-|-0-0---0----0-0---0----|
|
|----------------------|-----------------------|
|-x-----x-----x--x-----|-x---x---x--x---x---x--|
|----------------------|-----------------------|
|----------------------|-----------------------|


|----------------------|------------------------|
|----------------------|------------------------|
|-------------2--------|---------2----------3---|
|-0-0-0-0-0-0----0-0-0-|-0-0---0----0-0---0-----|
|
|----------------------|------------------------|
|-x-----x-----x--x-----|-x---x---x--x---x---x---|
|----------------------|------------------------|
|----------------------|------------------------|


|----------------------|-------------------|-----------------------|
|----------------------|-------------------|-----------------------|
|-7-7-7-7-7-7-7--7-7-7-|-7-7-7-7--7-7-7-7--|-7-7-7-7-7-7-7--7-7-7--|
|-0-0-0-0-0-0-0--0-0-0-|-0-0-0-0--0-0-0-0--|-0-0-0-0-0-0-0--0-0-0--|
|
|----------------------|-------------------|-----------------------|
|-x-x-x-x-x-x-x--x-x-x-|-x-x-x-x--x-x-x-x--|-x-x-x-x-x-x-x--x-x-x--|
|----------------------|-------------------|-----------------------|
|----------------------|-------------------|-----------------------|


|-----------------------||-|
|----------------------o||-|
|-7-7-7-7--7-7-7-7-7-7-o||-|
|-0-0-0-0--0-0-0-0-0-0--||-|
|
|-----------------------||-|
|-x-x-x-x--x-x-x-x-x-x-o||-|
|----------------------o||-|
|-----------------------||-|


                                                     4x
||-------------------------|-------------------------||
||o------------------------|------------------------o||
||o-------------2----------|---------2----------3---o||
||--0-0-0-0-0-0----0-0---0-|-0-0---0----0-0---0------||
|
|                                                    4x
||-------------------------|-------------------------||
||o-x-----x-----x--x---x---|-x---x---x--x---x---x---o||
||o------------------------|------------------------o||
||-------------------------|-------------------------||


|----------------------|----------------------|
|----------------------|----------------------|
|-7-7-7-7-7-7-7--7-7-7-|-7-7-7-7--7-7-7-7-7-7-|
|-0-0-0-0-0-0-0--0-0-0-|-0-0-0-0--0-0-0-0-0-0-|
|
|----------------------|----------------------|
|-x-x-x-x-x-x-x--x-x-x-|-x-x-x-x--x-x-x-x-x-x-|
|----------------------|----------------------|
|----------------------|----------------------|


||---------------------|----------------------|
||o--------------------|----------------------|
||o-------------7---7--|-------------7---7----|
||--0-0-0-0-0-0-0---0--|-0-0-0-0-0-0-0---0----|
|
||---------------------|----------------------|
||o-x-----x-----x-x-x--|-x-----x-----x-x-x----|
||o--------------------|----------------------|
||---------------------|----------------------|


|-------------------|--------------------||-|
|-------------------|-------------------o||-|
|-------------------|-------------------o||-|
|-0-0-0-0-0-0-0--1--|-3-3-3-3-3-3-3--3---||-|
|
|-------------------|--------------------||-|
|-x-----x-----x--x--|-x-----x-----x--x--o||-|
|-------------------|-------------------o||-|
|-------------------|--------------------||-|


||----------------------|----------------------|
||o---------------------|----------------------|
||o--------------5---5--|-------------5---5----|
||--3-3-3-3-3--3-3---3--|-3-3-3-3-3-3-3---3----|
|
||----------------------|----------------------|
||o-x-----x------x-x-x--|-x-----x-----x-x-x----|
||o---------------------|----------------------|
||----------------------|----------------------|


|--------------------|---------------------||
|--------------------|--------------------o||
|-------------5---6--|--------------------o||
|-3-3-3-3-3-3-3---4--|-1-1-1-1-1-1-1---1---||
|
|--------------------|---------------------||
|-x-----x-----x-x-x--|-x-----x-----x-x-x--o||
|--------------------|--------------------o||
|--------------------|---------------------||


|-||----------------|----------------|
|-||o---------------|----------------|
|-||o---------------|----------------|
|-||--0-0-3--0-0-3--|-0-0-3--0-0-3---|
|
|-||----------------|----------------|
|-||o-x-x-x--x-x-x--|-x-x-x--x-x-x---|
|-||o---------------|----------------|
|-||----------------|----------------|


|----------------------|---------------------||-----------------------|
|----------------------|--------------------o||-----------------------|
|----------------------|--------------------o||----------------5-5-5--|
|-1-1-1-1-1---1-1---1--|-1-1-1-1-1-1-1---1---||-3-3-3-3-3-3-3---------|
|
|----------------------|---------------------||-----------------------|
|-x-----x---x-----x-x--|-x-----x-----x-x-x--o||-x-x-x-x-x-x-x--x-x-x--|
|----------------------|--------------------o||-----------------------|
|----------------------|---------------------||-----------------------|


|-------------------------||--------------------------|
|-------------------------||o-------------------------|
|-5-5-5-4-4-4-3-3-3-2-2-2-||o---------------2---------|
|-------------------------||--0-0-0-0-0---0-----0-0-0-|
|
|-------------------------||--------------------------|
|-x-x-x-x-x-x-x-x-x-x-x-x-||o-x-----x---x-----x-x-----|
|-------------------------||o-------------------------|
|-------------------------||--------------------------|


                          4x
|-------------------------||
|------------------------o||
|---------2----------3---o||
|-0-0---0----0-0---0------||
|
|                         4x
|-------------------------||
|-x---x---x--x---x---x---o||
|------------------------o||
|-------------------------||


|----------------------|-------------------------|
|----------------------|-------------------------|
|-7-7-7-7-7-7-7--5-5-5-|-5-5-5-4-4-4-3-3-3-2-2-2-|
|----------------------|-------------------------|
|
|----------------------|-------------------------|
|-x-x-x-x-x-x-x--x-x-x-|-x-x-x-x-x-x-x-x-x-x-x-x-|
|----------------------|-------------------------|
|----------------------|-------------------------|


                                                    13x
||--------------------------|------------------------||
||o-------------------------|-----------------------o||
||o---------------2---------|---------2----------3--o||
||--0-0-0-0-0---0-----0-0-0-|-0-0---0----0-0---0-----||
|
|                                                   13x
||--------------------------|------------------------||
||o-x-----x---x-----x-x-----|-x---x---x--x---x---x--o||
||o-------------------------|-----------------------o||
||--------------------------|------------------------||


|---------------|---------------|
|---------------|---------------|
|---------------|---------------|
|-0-0-3--0-0-3--|-0-0-3--0-0-3--|
|
|---------------|---------------|
|-x-x-x--x-x-x--|-x-x-x--x-x-x--|
|---------------|---------------|
|---------------|---------------|


|-------------------------|------------------------|
|-------------------------|------------------------|
|---------------2---------|-------2-----------3----|
|-0-0-0-0-0---0-----0-0-0-|-0-0-0-----0-0---0------|
|
|-------------------------|------------------------|
|-x-----x---x-----x-x-----|-x-----x-x-----x---x----|
|-------------------------|------------------------|
|-------------------------|------------------------|


                                                          1.,2.,3.
                                                                           4x
|---------------|---------------||-----------------------|-----------------||
|---------------|---------------||o----------------------|----------------o||
|---------------|---------------||o---------------7---7--|----------------o||
|-0-0-3--0-0-3--|-0-0-3--0-0-3--||--0-0-0-0-0---0-0---0--|-1-1-1--1-1-1----||
|
|                                                                          4x
|---------------|---------------||-----------------------|-----------------||
|-x-x-x--x-x-x--|-x-x-x--x-x-x--||o-x-----x---x-----x-x--|-x-x-x--x-x-x---o||
|---------------|---------------||o----------------------|----------------o||
|---------------|---------------||-----------------------|-----------------||


  4.
|---------------|---------------|
|---------------|---------------|
|---------------|---------------|
|-3-3-3--3-3-3--|-3-3-3--3-3-3--|
|
|---------------|---------------|
|-x-x-x--x-x-x--|-x-x-x--x-x-x--|
|---------------|---------------|
|---------------|---------------|


|-------------------------|------------------------|
|-------------------------|------------------------|
|---------------2---------|-------2-----------3----|
|-0-0-0-0-0---0-----0-0-0-|-0-0-0-----0-0---0------|
|
|-------------------------|------------------------|
|-x-----x---x-----x-x-----|-x-----x-x-----x---x----|
|-------------------------|------------------------|
|-------------------------|------------------------|


|-------------------------|------------------*|
|-------------------------|------------------*|
|-7-7-7-7-7-7-7--19-19-19-|-19-19-19-19------*|
|-0-0-0-0-0-0-0---0--0--0-|--0--0--0--0------*|
|
|-------------------------|------------------*|
|-x-x-x-x-x-x-x---x--x--x-|--x--x--x--x------*|
|-------------------------|------------------*|
|-------------------------|------------------*|
Comments