Metallica - One Chords & Tabs

 

One Chords & Tabs

Metallica Chords & Tabs

Version: 3 Type: Bass Tab 0 ratings
1 star 2 stars 3 stars 4 stars 5 stars
comments

One Bass Tab

Band: Metallica
Song: One
Album:....And Justice For All
Corrections: Redhotchillipeppers_tom@hotmail.com



|----------|------------|------|------------|-----------------||----4-------
|----------|------------|------|------------|-----------------||------------
|----------|------------|------|------------|---2---2---2---2-||-2----2-3-2-
|----------|------------|------|------------|-----------------||------------


|------------|----4---------|------------|
|------------|--------------|------------|
|------------|-2----2-2h3-2-|------------|
|-3----3-0-2-|--------------|-3----3-0-2-|


  
|----4---------|---------------|---------------|
|--------------|--------7-5----|---------------|
|-2----2-2h3-2-|-0----0-----7\-|---------------|
|--------------|---------------|-3----3-0-2-3--|


|------------|------------||-------7-------|
|------------|------------||---7-----------|
|----------4-|----5-----7-||-5---5---/7----|
|-0----0-2---|-3----3-5---||------------8\-|


|------------|------------|--------------|
|----5-------|----3---3---|-----2---2----|
|------------|------------|---2---2---2/-|
|-3----3-5-3-|-1----1---1-|-0------------|


   
|--------7-------|------------|------------|
|----7-----------|----4-------|----3---3---|
|-/5---5---/7----|------------|------------|
|-------------8\-|-3----3-5-3-|-1----1---1-|


                 1st, 2nd Verses
  
|-------------||-------4-----|-------------|
|-------------||o------------|-------------|
|--------2h3--||o-2------3-2-|-------------|
|-0----0------||-------------|-2----3-0-2--|



|---4--------|-------------|--------------|---------------|--------------|
|------------|-------------|--------------|--------7-5----|--------------|
|-2----2-3-2-|--------2h5--|-2----2-2h3-2-|-0----0-----7\-|--------------|
|------------|-3--3-0------|--------------|---------------|-3----3-0-2-3-|



|-------------|------4-----|------------|--------------|--------------|
|-------------|------------|------------|--------------|--------------|
|---2-----2---|-2------3-2-|------------|-2----2-2h3-2-|--------0-2h5-|
|-0-----2-----|------------|-2----3-0-2-|--------------|-3----3-------|



  
|--------------|---------------|--------------|--------||---------------------|
|--------------|--------7-5----|--------------|--------||---------------------|
|-2----2-2h3-2-|-0----0-----7\-|--------------|--------||--------2-------2----|
|--------------|---------------|-3----3-0-2-3-|-0--2-0-||-3----5---5-3-2------|



|-----------------------||--------------|
|-----------------5---6-||-----7--------|
|------2-4-2----3---4---||--5----5s7----|
|-5----------5----------||-----------8\-|


 
|------------|------------|-------------|
|----5-------|----3---3---|-----2---2---|
|------------|------------|---2---2---2-|
|-3----3-5-3-|-1----1---1-|-0-----------|


  
|-------7-------|-------------|------------|--------------||-------7--------|
|---7-----------|-----5-------|----3---3---|-------------o||---7------------|
|-5---5---/7----|-------------|------------|--------2h3--o||-5---5---/7-----|
|------------8\-|-\3----3-5-3-|-1----1---1-|-0----0-------||------------8\--|


  
|------------|------------|-------------|-------7-------|
|----5-------|----3---3---|-----2---2---|---7-----------|
|------------|------------|---2---2---2-|-5---5---/7----|
|-3----3-5-3-|-1----1---1-|-0-----------|------------8\-|


  
|------------|------------|---------------|
|----5-------|----3---3---|-----2---2-----|
|------------|------------|---2---2---2---|
|-3----3-5-3-|-1----1---1-|-0-------------|



|---------------------|---------------------|---------------------|
|---------------------|---------------------|---------------------|
|--------2---------3--|------2-4-2----2--4--|--------2---------2--|
|-3----3---5-3--3-----|-3----------5--------|-3----3---5-3--2-----|


  
|---------------------|-----------------------||
|---------------------|-----------------------||
|------2-4-2----2--4--|--------2---------2----||
|-5----------5--------|-3----5---5-3--2-------||



|------------|-------------|------------|------------|-------------|
|------------|-------------|------------|------------|-------------|
|----5-----5-|-------5-----|-2--2---2---|-3--3---3---|-----5---5---|
|-5----5-5---|-3-3-3---3-0-|------0---0-|------1---0-|-5-5---5---5-|


  
|-------------|------------|---------------|-------------|-------------|
|-------------|------------|---------------|-----7-------|-------------|
|-------------|-2--2---2-0-|-3-3-3-3---3---|---5---5-----|-------5-----|
|-3-3-3-5-3-0-|------0-----|---------1---0-|-5-------5-0-|-3-3-3---3-0-|


 
|------------|-------------|-------------|-------------|-------------|
|------------|-------------|-----7-------|-------------|-------------|
|-2--2---2---|-3-3-3---3---|---5---5-----|-------------|-2--2---2-0--|
|------0---0-|-------1---0-|-5-------5-0-|-3-3-3-5-3-0-|------0------|


 
|--------------|-------------|-------------|------------|--------------|
|--------------|-------7-----|-------7-----|------------|--------------|
|-3-3-3-3---3/-|-7-7-7---7-0-|-5-5-5---5\--|-2------2-0-|-3-3-3---3/---|
|---------1----|-------------|-------------|------0-----|-------1------|


      
|--------------|-------------|------------|---------------|----------|--------||
|--------7-----|-------7-----|------------|---------------|----------|--------||
|-/7-7-7---7-0-|-5-5-5---5\--|-2--2-0-2-0-|-3-3-3-3---3---|-7--------|-(7)----||
|--------------|-------------|------------|---------1---0-|-0--------|-(0)----||


 
|---------------------------------|
|---------------------------------|
|-------------7---------------7---|
|-0-0-0-0-0-0-0---0-0-0-0-0-0-0---|

[ Tab from: http://www.guitartabs.cc/tabs/m/metallica/one_btab_ver_3.html ]
  
|---------------------------------|--------------------------------||
|---------------------------------|--------------------------------||
|-------------7---------------7---|-------------7--------------7---||
|-0-0-0-0-0-0-0---0-0-0-0-0-0-0---|-0-0-0-0-0-0-0--0-0-0-0-0-0-0---||


    
||----------------------------------||-|
||o--------------------------------o||-|
||o-------------7------------------o||-|
||--0-0-0-0-0-0-0--0-0-0-0-0-0-0-1--||-|



||----------------------------------|-----------------------------------|
||o---------------------------------|-----------------------------------|
||o-------------7---------------7---|-------------7---------------7-----|
||--0-0-0-0-0-0-0---0-0-0-0-0-0-0---|-0-0-0-0-0-0-0---0-0-0-0-0-0-0-----|


  
|---------------------------------|
|---------------------------------|
|-------------7---------------7---|
|-0-0-0-0-0-0-0---0-0-0-0-0-0-0---|


                                  
|---------------------------------|--------------------------------|
|---------------------------------|--------------------------------|
|-------------7-------------------|-------------7--------------7s8-|
|-0-0-0-0-0-0-0---0-0-0-0-0-0-0-1-|-0-0-0-0-0-0----0-0-0-0-0-0-----|


    
|--------------------------------|--------------------------------|
|--------------------------------|--------------------------------|
|-------------5--------------5s8-|-------------7--------------7s8-|
|-0-0-0-0-0-0----0-0-0-0-0-0-----|-0-0-0-0-0-0----0-0-0-0-0-0-----|



|---------------------------------||
|--------------------------------o||
|-------------5--------------2---o||
|-0-0-0-0-0-0----0-0-0-0-0-0---1--||


    
||-----------------------|-------------------|
||o----------------------|-------------------|
||o-------------2--------|-------2--------3--|
||--0-0-0-0-0-0----0-0-0-|-0-0-0----0-0-0----|


  
|----------------------|--------------------|
|----------------------|--------------------|
|-------------2--------|-------2--------3---|
|-0-0-0-0-0-0----0-0-0-|-0-0-0----0-0-0-----|



|----------------------|-------------------|
|----------------------|-------------------|
|-------------2--------|-------2--------3--|
|-0-0-0-0-0-0----0-0-0-|-0-0-0----0-0-0----|



|----------------------|---------------------|
|----------------------|---------------------|
|-------------2--------|-------2--------3----|
|-0-0-0-0-0-0----0-0-0-|-0-0-0----0-0-0------|


 
|-----------------------|-----------------------|------------------------||
|-----------------------|-----------------------|-----------------------o||
|-7-7-7-7-7-7-7---7-7-7-|-7-7-7-7-7-7-7---7-7-7-|-7-7-7-7-7-7-7---7-7-7-o||
|-0-0-0-0-0-0-0---0-0-0-|-0-0-0-0-0-0-0---0-0-0-|-0-0-0-0-0-0-0---0-0-0--||


   Guitar Solo lardey dar dey dar
    4x
||-----------------------|--------------------||-|
||o----------------------|-------------------o||-|
||o-------------2--------|-------2--------3--o||-|
||--0-0-0-0-0-0----0-0-0-|-0-0-0----0-0-0-----||-|


    
||------------------------|-----------------------||
||o-----------------------|----------------------o||
||o-7-7-7-7-7-7-7---7-7-7-|-7-7-7-7-7-7-7---7-7-7o||
||--0-0-0-0-0-0-0---0-0-0-|-0-0-0-0-0-0-0---0-0-0-||


  
||--------------------|-------------------|
||o-------------------|-------------------|
||o-------------7--7--|-------------7--7--|
||--0-0-0-0-0-0-0--0--|-0-0-0-0-0-0-0--0--|


  
|-------------------|--------------------||
|-------------------|-------------------o||
|-------------------|-------------------o||
|-0-0-0-0-0-0-0--1--|-3-3-3-3-3-3-3--3---||


    
||--------------------|-------------------|
||o-------------------|-------------------|
||o-------------5--5--|-------------5--5--|
||--3-3-3-3-3-3-------|-3-3-3-3-3-3-------|



|-------------------|--------------------||
|-------------------|-------------------o||
|-------------5--5--|-------------------o||
|-3-3-3-3-3-3-------|-1-1-1-1-1-1-1--1---||


     
||----------------|---------------|-------------------|-------------------||
||o---------------|---------------|-------------------|------------------o||
||o---------------|---------------|-------------------|------------------o||
||--0-0-3--0-0-3--|-0-0-3--0-0-3--|-1-1-1-1-1-1-1--1--|-1-1-1-1-1-1-1--1--||



|-----------------------|-------------------------|
|-----------------------|-------------------------|
|-----------------5-5-5-|-5-5-5-4-4-4-3-3-3-2-2-2-|
|-3-3-3-3-3-3-3---------|-------------------------|


    4x
||-----------------------|--------------------||
||o----------------------|-------------------o||
||o-------------2--------|-------2--------3--o||
||--0-0-0-0-0-0----0-0-0-|-0-0-0----0-0-0-----||



|-----------------------|-------------------------|
|-----------------------|-------------------------|
|-7-7-7-7-7-7-7---5-5-5-|-5-5-5-4-4-4-3-3-3-2-2-2-|
|-----------------------|-------------------------|


   4x
||-----------------------|--------------------||
||o----------------------|-------------------o||
||o-------------2--------|-------2--------3--o||
||--0-0-0-0-0-0----0-0-0-|-0-0-0----0-0-0-----||


  
|---------------|---------------|---------------|
|---------------|---------------|---------------|
|---------------|---------------|---------------|
|-0-0-3--0-0-3--|-0-0-3--0-0-3--|-0-0-3--0-0-3--|



||--------------------|-----------------||
||o-------------------|----------------o||
||o-------------7--7--|----------------o||
||--0-0-0-0-0-0-0--0--|-1-1-1--1-1-1----||



|---------------|---------------|----------------------|
|---------------|---------------|----------------------|
|---------------|---------------|-------------2--------|
|-3-3-3--3-3-3--|-3-3-3--3-3-3--|-0-0-0-0-0-0----0-0-0-|


 

|-------------------|--------------------------|--------------------*|
|-------------------|--------------------------|--------------------*|
|-------2--------3--|-7-7-7-7-7-7-7---19-19-19-|-19-19-19-19--------*|
|-0-0-0----0-0-0----|-0-0-0-0-0-0-0----0--0--0-|--0--0--0--0--------*|
Comments