Metallica - Of Wolf And Man Chords & Tabs

 

Of Wolf And Man Chords & Tabs

Metallica Chords & Tabs

Version: 4 Type: Tab 0 ratings
1 star 2 stars 3 stars 4 stars 5 stars
comments

Of Wolf And Man Tab

Metallica
"Of Wolf And Man"
By: CHRIS CORTES

Standard Tuning


Guitar I                                          Guitar II in ( )
e-------------------------------------------------------------------------------
B-------------------------------------------------------------------------------
G-------------------------------------------------------------------------------
D----2----2----2----2----2----2----2----2----2----(9)----2----(10)----2----(11)-
A----2----2----2----2----2----2----2----2----2----(7)----2----(8)-----2----(9)--
E----0----0----0----0----0----0----0----0----0-----------0------------0---------


e-------------------------------------------------------------------------------
B-------------------------------------------------------------------------------
G-------------------------------------------------------------------------------
D----2----(12)----2----(9)----2----(10)----2----(11)----2----(13)----2----(9)---
A----2----(10)----2----(7)----2----(8)-----2----(9)-----2----(11)----2----(7)---
E----0------------0-----------0------------0------------0------------0----------


e-------------------------------------------------------------------------------
B-------------------------------------------------------------------------------
G-------------------------------------------------------------------------------
D----2----(10)----2----(11)----2----(12)----2----(9)----2----(3)----2----(3)----
A----2----(8)-----2----(9)-----2----(10)----2----(7)----2----(3)----2----(3)----
E----0------------0------------0------------0-----------0-----------0-----------
[ Tab from: http://www.guitartabs.cc/tabs/m/metallica/of_wolf_and_man_tab_ver_4.html ]
                 Guitar I      Guitar II
e-------------------------------------------------------------------------------
B-------------------------------------------------------------------------------
G-------------------------------------------------------------------------------
D----2----(3)----2--------------------------------4---3---------------------4--3
A----2----(3)----2-----------------------3--2-----2---1-------------3--2----2--1
E----0-----------0-------------0---0-0---1--0--0----0-----0---0-0---1--0--0---0-
                               p.m.---        p.m. p.m.   p.m.---        p.m. -

     Guitars I & II(play four times)
e-------------------------------------------------------------------------------
B-------------------------------------------------------------------------------
G-------------------------------------------------------------------------------
D-----------------------------4--3------------------------4-----3---------------
A-------------3--2------------2--1---------------3--2-----2-----1---------------
E----0---0-0--1--0---0---0-0------------0---0-0--1--0--0-----0------------------
     p.m.---         p.m.---            p.m.---       p.m.  p.m.

                                              Gtr.I & Gtr.II( ) Chorus
e-------------------------------------------------------------------------------
B-------------------------------------------------------------------------------
G-------------------------------------------------------------------------------
D---------------------------------------------2---(9)--2--(10)--2--(11)--2--(12)
A---------5-7-5-0-5-7---5-7-------------------2---(7)--2--(8)---2--(9)---2--(10)
E----5--7-------------------------------------0--------0--------0--------0------
    p.m.-  H P P   H     H


e-------------------------------------------------------------------------------
B-------------------------------------------------------------------------------
G-------------------------------------------------------------------------------
D------4--3-------------------4--3-----------------6-----5----------------------
A------2--1----2--2--3--2-----2--1--2--2--3--2-----4-----3------4--4--5--4------
E----0---0-----0--0--1--0--0--------0--0--1--0--0-----0---------2--2--3--2--0---


e--------------------------------------------------------------
B--------------------------------------------------------------
G--------------------------------------------------------------
D----6-----5---------------------------------------------------
A----4-----3-------------5--4----------5----4---4---4---4------
E-------0--------2---2-2-3--2--2---2-2-3----2---2---2---2----14\
                                                             SLIDE
Comments