Metallica - Now I Wanna Chords & Tabs

 

Now I Wanna Chords & Tabs

Metallica Chords & Tabs

Version: 1 Type: Tab 0 ratings
1 star 2 stars 3 stars 4 stars 5 stars
comments

Now I Wanna Tab

   
Band- Metallica
Song- Now I Wanna(Ramones Cover)
Album- Frantic Single
Tuning- Standard

Now I wanna sniff some glue       Now I wanna have something to do
e:|----------------------------------------------------------------|
B:|----------------------------------------------------------------|
G:|----------------------------------------------------------------|
D:|-7-7-7-7-7-7-7--5-5-5-5-5-5-5-5--7-7-7-7-7-7-7--5-5-5-5-5-5-5-5-|
A:|-7-7-7-7-7-7-7--5-5-5-5-5-5-5-5--7-7-7-7-7-7-7--5-5-5-5-5-5-5-5-|
E:|-5-5-5-5-5-5-5--3-3-3-3-3-3-3-3--5-5-5-5-5-5-5--3-3-3-3-3-3-3-3-|


All the kids wanna sniff some glue All the kids want something to do
e:|----------------------------------------------------------------|
B:|----------------------------------------------------------------|
G:|----------------------------------------------------------------|
D:|-7-7-7-7-7-7-7--5-5-5-5-5-5-5-5--7-7-7-7-7-7-7--5-5-5-5-5-5-5-5-|
A:|-7-7-7-7-7-7-7--5-5-5-5-5-5-5-5--7-7-7-7-7-7-7--5-5-5-5-5-5-5-5-|
E:|-5-5-5-5-5-5-5--3-3-3-3-3-3-3-3--5-5-5-5-5-5-5--3-3-3-3-3-3-3-3-|


e:|-----------------------|
B:|-----------------------|
G:|-----------------------|
D:|-7------5-----3------2-|
A:|-7------5-----3------2-|
E:|-5------3-----1------0-| 


1234
e:|-----------------------|
B:|-----------------------|
G:|-----------------------|
D:|-7------5-----3------2-|
A:|-7------5-----3------2-|
E:|-5------3-----1------0-| 

Now I wanna sniff some glue 
now I wanna have somthing to do
All the kids wanna sniff some glue
all the kids want somthing to do

e:|-----------------------|
B:|-----------------------|
G:|-----------------------|
D:|-7------5-----3------2-|
A:|-7------5-----3------2-|
E:|-5------3-----1------0-| 

     pm....              ....
e:|------------------------------------|
B:|------------------------------------|
G:|------------------------------------|
D:|--------------5h7---------------5---|
A:|5h7-7-7-7-5h7-----5h7-7-7-7-5h7-----|
E:|------------------------------------|


e:|-----------------------|
B:|-----------------------|
G:|-----------------------|
D:|-7------5-----3------2-|
A:|-7------5-----3------2-|
E:|-5------3-----1------0-| 
[ Tab from: http://www.guitartabs.cc/tabs/m/metallica/now_i_wanna_tab.html ]
Now I wanna sniff some glue       Now I wanna have something to do
e:|----------------------------------------------------------------|
B:|----------------------------------------------------------------|
G:|----------------------------------------------------------------|
D:|-7-7-7-7-7-7-7--5-5-5-5-5-5-5-5--7-7-7-7-7-7-7--5-5-5-5-5-5-5-5-|
A:|-7-7-7-7-7-7-7--5-5-5-5-5-5-5-5--7-7-7-7-7-7-7--5-5-5-5-5-5-5-5-|
E:|-5-5-5-5-5-5-5--3-3-3-3-3-3-3-3--5-5-5-5-5-5-5--3-3-3-3-3-3-3-3-|


All the kids wanna sniff some glue All the kids want something to do
e:|----------------------------------------------------------------|
B:|----------------------------------------------------------------|
G:|----------------------------------------------------------------|
D:|-7-7-7-7-7-7-7--5-5-5-5-5-5-5-5--7-7-7-7-7-7-7--5-5-5-5-5-5-5-5-|
A:|-7-7-7-7-7-7-7--5-5-5-5-5-5-5-5--7-7-7-7-7-7-7--5-5-5-5-5-5-5-5-|
E:|-5-5-5-5-5-5-5--3-3-3-3-3-3-3-3--5-5-5-5-5-5-5--3-3-3-3-3-3-3-3-|

Now I wanna sniff some glue       Now I wanna have something to do
e:|----------------------------------------------------------------|
B:|----------------------------------------------------------------|
G:|----------------------------------------------------------------|
D:|-7-7-7-7-7-7-7--5-5-5-5-5-5-5-5--7-7-7-7-7-7-7--5-5-5-5-5-5-5-5-|
A:|-7-7-7-7-7-7-7--5-5-5-5-5-5-5-5--7-7-7-7-7-7-7--5-5-5-5-5-5-5-5-|
E:|-5-5-5-5-5-5-5--3-3-3-3-3-3-3-3--5-5-5-5-5-5-5--3-3-3-3-3-3-3-3-|


All the kids wanna sniff some glue  All the kids want something to do
e:|----------------------------------------------------------------|
B:|----------------------------------------------------------------|
G:|----------------------------------------------------------------|
D:|-7-7-7-7-7-7-7--5-5-5-5-5-5-5-5--7-7-7-7-7-7-7--5-5-5-5-5-5-5-5-|
A:|-7-7-7-7-7-7-7--5-5-5-5-5-5-5-5--7-7-7-7-7-7-7--5-5-5-5-5-5-5-5-|
E:|-5-5-5-5-5-5-5--3-3-3-3-3-3-3-3--5-5-5-5-5-5-5--3-3-3-3-3-3-3-3-|

e:|-----------------------|
B:|-----------------------|
G:|-----------------------|
D:|-7------5-----3------2-|
A:|-7------5-----3------2-|
E:|-5------3-----1------0-| 

e:|--------------------------------------------|
B:|--------------------------------------------|
G:|--------------------------------------------|
D:|-7-7-7-7-7--5-5-5-5-5--3-3-3-3-3--2-2-2-2-2-|
A:|-7-7-7-7-7--5-5-5-5-5--3-3-3-3-3--2-2-2-2-2-|
E:|-5-5-5-5-5--3-3-3-3-3--1-1-1-1-1--0-0-0-0-0-| 

e:|------------------------------------------------------|
B:|------------------------------------------------------|
G:|------------------------------------------------------|
D:|-7-7-7-7-7--9-9-9-9-9--10-10-10-10-10--14-14-14-14-14-|
A:|-x-x-x-x-x--x-x-x-x-x--x--x--x--x--x---x--x--x--x--x--|
E:|-5-5-5-5-5--7-7-7-7-7--8--8--8--8--8---12-12-12-12-12-| 

     pm....              ....
e:|------------------------------------|
B:|------------------------------------|
G:|------------------------------------|
D:|--------------5h7---------------5---|
A:|5h7-7-7-7-5h7-----5h7-7-7-7-5h7-----|
E:|------------------------------------|

e:|---|
B:|---|
G:|---|
D:|-2-|
A:|-2-|
E:|-0-|

ENJOY!!!!
Comments