Metallica - Nothing Else Matters Chords & Tabs

 

Nothing Else Matters Chords & Tabs

Metallica Chords & Tabs

Version: 2 Type: Tab 3 ratings
1 star 2 stars 3 stars 4 stars 5 stars
comments

Nothing Else Matters Tab

   


                                                                  
E||-----------0--------|-----------0--------|-----------0--------|
B||--------0-----0-----|--------0-----0-----|--------0-----0-----|
G||-----0-----------0--|-----0-----------0--|-----0-----------0--|
D||--------------------|--------------------|--------------------|
A||--------------------|--------------------|--------------------|
E||--0--------0--------|--0-----------------|--0-----------------|


                                                                                
-----------0-----7--|--7--------7h0-------|--------7--8--7h8/5--|--7--5h3/2----|
--------0-----0-----|-----0-----0---0-----|--0-----0--0---------|--0--------5--|
-----0--------------|--------0---------0--|-----0---------------|--------------|
--------------------|---------------------|---------------------|--------------|
--------------------|---------------------|---------------------|--------------|
--0-----------------|--0------------------|--0------------------|--------------|


                                    Am                              
-----------2h0-------|-----------0--0--0--|--0----------3h0-----0--|
--5-----5------5-----|--------5-----5--5--|--5------5-------5---5--|
-----5------------5--|-----5--------5--5--|--5----5---5-------5-5--|
---------------------|--------------------|------------------------|
--0------------------|--0-----------0--2--|--3--3---------------3--|
---------------------|--------------------|------------------------|


                                                                         
--0----------0h5h0---------|-------------12--------|-----------0--------|
--7------7---------7h0-0h5-|-----12--12------0-----|--------0-----0-----|
--7----7---7---------------|-----12-------------0--|-----0-----------0--|
---------------------------|-----------------------|--------------------|
--5--5---------------------|-----------------------|--------------------|
---------------------------|--0--------------------|--0-----------------|


                                            Em                
-----------0--------|-----------0--------|------------7~-----|
--------0-----0-----|--------0-----0-----|------------8~-----|
-----0-----------0--|-----0-----------0--|----------9--------|
--------------------|--------------------|--------9----------|
--------------------|--------------------|------7------------|
--0-----------------|--0-----------------|--0----------------|


  D        C           Em                  D        C         
--------------------|------------7~-----|--------------------|
--------7--------5--|------------8~-----|--------7--------5--|
--------7--------5--|----------9--------|--------7--------5--|
-----7--------5-----|--------9----------|-----7--------5-----|
--5--------3--------|------7------------|--5--------3--------|
--------------------|--0----------------|--------------------|


  Em                  F#m/5+     Em/5+         Gadd11     B7          
------------7~-----|-----5----------3-------|-----3----------2-------|
------------8~-----|-------7----------5-----|-------3----------4-----|
----------9--------|---------7----------5---|---------4----------2---|
--------9----------|------------------------|------------------------|
------7------------|--5----------3----------|-------------2----------|
--0----------------|------------------------|--3---------------------|


                                                                 
-----------0--------|-----------0--------|-----------3----0-----|
--------0-----0-----|--------0-----0-----|--------0---------0---|
-----0-----------0--|-----0-----------0--|-----0--------0-----0-|
--------------------|--------------------|----------------------|
--------------------|--------------------|----------------------|
--0-----------------|--0-----------------|--0-------------------|


  G                                                                      
--2----3-----0----------|-----------3----0-----|--2---------------------|
---------3------3-------|--------0---------0---|-------3-----3----3-----|
-----------0------0-----|-----0--------0-----0-|---------2h0----0-------|
--0--0------------------|----------------------|--0--0------------------|
-------------3----------|----------------------|-------------3----------|
--------------------3-2-|--0-------------------|--------------------3-2-|


                                                                    
-----------3----0-----|--2----3-----3--------|--------3--2----2----|
--------0---------0---|---------3------3-----|--------3--0------0--|
-----0--------0-----0-|-----------0-------0--|-----0-----2---------|
----------------------|--0--0----------------|---------------------|
----------------------|-------------3--------|-----------2--2------|
--0-------------------|----------------------|--3------------------|


                                                                  
-----------0--------|-----------0---------|-----------3----0-----|
--------0-----0-----|--------0-----0------|--------0---------0---|
-----0-----------0--|-----0---------------|-----0--------0-----0-|
--------------------|---------------------|----------------------|
--------------------|---------------------|----------------------|
--0-----------------|--0--------------3-2-|--0-------------------|


                                                                         
--2----3-----0----------|-----------3----0-----|--2---------------------|
---------3------3-------|--------0---------0---|-------3-----3----3-----|
-----------0------0-----|-----0--------0-----0-|---------2h0----0-------|
--0--0------------------|----------------------|--0--0------------------|
-------------3----------|----------------------|-------------3----------|
--------------------3-2-|--0-------------------|--------------------3-2-|


                                                                    
-----------3----0-----|--2----3-----3--------|--------3--2----2----|
--------0---------0---|---------3------3-----|--------3--0------0--|
-----0--------0-----0-|-----------0-------0--|-----0-----2---------|
----------------------|--0--0----------------|---------------------|
----------------------|-------------3--------|-----------2--2------|
--0-------------------|----------------------|--3------------------|


                                                                  
-----------0--------|-----------0---------|-----------3----0-----|
--------0-----0-----|--------0-----0------|--------0---------0---|
-----0-----------0--|-----0---------------|-----0--------0-----0-|
--------------------|---------------------|----------------------|
--------------------|---------------------|----------------------|
--0-----------------|--0--------------3-2-|--0-------------------|


                                                                         
--2----3-----0----------|-----------3----0-----|--2---------------------|
---------3------3-------|--------0---------0---|-------3-----3----3-----|
-----------0------0-----|-----0--------0-----0-|---------2h0----0-------|
--0--0------------------|----------------------|--0--0------------------|
-------------3----------|----------------------|-------------3----------|
--------------------3-2-|--0-------------------|--------------------3-2-|


                                                                    
-----------3----0-----|--2----3-----3--------|--------3--2----2----|
--------0---------0---|---------3------3-----|--------3--0------0--|
-----0--------0-----0-|-----------0-------0--|-----0-----2---------|
----------------------|--0--0----------------|---------------------|
----------------------|-------------3--------|-----------2--2------|
--0-------------------|----------------------|--3------------------|


                       C      A         D                     C      A       
-----------0--------|--0------0------|--2---2--2-3-2--0--2-|--0------0------|
--------0-----0-----|--1------2------|--3---3--3-3-3--3--3-|--1------2------|
-----0-----------0--|--0------2------|--2---2--2-2-2--2--2-|--0------2------|
--------------------|--2------2------|--0---0--0-0-0--0--0-|--2------2------|
--------------------|--3------0------|---------------------|--3------0------|
--0-----------------|----------------|---------------------|----------------|


  D        Dsus4                                      Em            
--2---2--2-3-2--0--2-|--0------0------|--2--2-2-2--|--0------------|
--3---3--3-3-3--3--3-|--1------2------|--3--3-3-3--|--0------------|
--2---2--2-2-2--2--2-|--0------2------|--2--2-2-2--|--0------------|
--0---0--0-0-0--0--0-|--2------2------|--0--0-0-0--|--2------------|
---------------------|--3------0------|------------|--2------------|
---------------------|----------------|------------|--0------------|


                                                               
--------------|-----------3----0-----|--2----3-----0----------|
--------------|--------0---------0---|---------3------3-------|
--------------|-----0--------0-----0-|-----------0------0-----|
--------------|----------------------|--0--0------------------|
--------------|----------------------|-------------3----------|
--------------|--0-------------------|--------------------3-2-|


                                                                       
-----------3----0-----|--2---------------------|-----------3----0-----|
--------0---------0---|-------3-----3----3-----|--------0---------0---|
-----0--------0-----0-|---------2h0----0-------|-----0--------0-----0-|
----------------------|--0--0------------------|----------------------|
----------------------|-------------3----------|----------------------|
--0-------------------|--------------------3-2-|--0-------------------|


                                                                  
--2----3-----3--------|--------3--2----2----|-----------0--------|
---------3------3-----|--------3--0------0--|--------0-----0-----|
-----------0-------0--|-----0-----2---------|-----0-----------0--|
--0--0----------------|---------------------|--------------------|
-------------3--------|-----------2--2------|--------------------|
----------------------|--3------------------|--0-----------------|


                                                                              
--0------0------|--2---2--2-3-2--0--2-|--0------0------|--2---2--2-3-2--0--2-|
--1------2------|--3---3--3-3-3--3--3-|--1------2------|--3---3--3-3-3--3--3-|
--0------2------|--2---2--2-2-2--2--2-|--0------2------|--2---2--2-2-2--2--2-|
--2------2------|--0---0--0-0-0--0--0-|--2------2------|--0---0--0-0-0--0--0-|
--3------0------|---------------------|--3------0------|---------------------|
----------------|---------------------|----------------|---------------------|


                                                                   
--0------0------|--2--2-2-2--|--0------------|-----------0--------|
--1------2------|--3--3-3-3--|--0------------|--------0-----0-----|
--0------2------|--2--2-2-2--|--0------------|-----0-----------0--|
--2------2------|--0--0-0-0--|--2------------|--------------------|
--3------0------|------------|--2------------|--------------------|
----------------|------------|--0------------|--0-----------------|

[ Tab from: http://www.guitartabs.cc/tabs/m/metallica/nothing_else_matters_tab_ver_2.html ]
                                                                   
--12--------14--------|--15--------17--------|--8--------8--------|
--12--12----12--12----|--12--12----12--12----|-----5--------5-----|
----------------------|----------------------|--------5--------5--|
----------------------|----------------------|--------------------|
----------------------|----------------------|--------------------|
----------------------|----------------------|--------------------|


                                                            
----------8--------|--0----------0-----|--0----------0-----|
-------5-----5-----|-----1----------1--|-----3----------3--|
----5-----------5--|--------0----------|--------2----------|
-------------------|-------------------|-------------------|
-------------------|-------------------|-------------------|
-------------------|-------------------|-------------------|


                                                                 
--0-7-------7-0-------|-----------0------|--12--------14--------|
------0---------0-----|--------0---------|--12--12----12--12----|
---------0---------0--|-----0------------|----------------------|
----------------------|------------------|----------------------|
----------------------|------------------|----------------------|
----------------------|--0---------------|----------------------|


                                                                
--15--------17--------|--8--------8--------|----------8--------|
--12--12----12--12----|-----5--------5-----|-------5-----5-----|
----------------------|--------5--------5--|----5-----------5--|
----------------------|--------------------|-------------------|
----------------------|--------------------|-------------------|
----------------------|--------------------|-------------------|


                                                                      
--0----------0-----|--------------------------|----------------------|
-----1----------1--|--------------------------|-----12-----12--------|
--------0----------|----12--12h14~--12h14-14r-|--12------------------|
-------------------|--------------------------|---------------14-----|
-------------------|--------------------------|----------------------|
-------------------|--------------------------|----------------------|


                                                                                
------------------------------|------------3----0-----|--2----3-----0----------|
----15--15~-15~---------------|---------0---------0---|---------3------3-------|
----14--14~-14~12----------12-|------0--------0-----0-|-----------0------0-----|
------------------14~12-14----|--14-------------------|--0--0------------------|
------------------------------|-----------------------|-------------3----------|
------------------------------|--0--------------------|--------------------3-2-|


                                                                       
-----------3----0-----|--2---------------------|-----------3----0-----|
--------0---------0---|-------3-----3----3-----|--------0---------0---|
-----0--------0-----0-|---------2h0----0-------|-----0--------0-----0-|
----------------------|--0--0------------------|----------------------|
----------------------|-------------3----------|----------------------|
--0-------------------|--------------------3-2-|--0-------------------|


                                                                  
--2----3-----3--------|--------3--2----2----|-----------0--------|
---------3------3-----|--------3--0------0--|--------0-----0-----|
-----------0-------0--|-----0-----2---------|-----0-----------0--|
--0--0----------------|---------------------|--------------------|
-------------3--------|-----------2--2------|--------------------|
----------------------|--3------------------|--0-----------------|


                                                                      
-----------0---------|-----------3----0-----|--2----3-----0----------|
--------0-----0------|--------0---------0---|---------3------3-------|
-----0---------------|-----0--------0-----0-|-----------0------0-----|
---------------------|----------------------|--0--0------------------|
---------------------|----------------------|-------------3----------|
--0--------------3-2-|--0-------------------|--------------------3-2-|


                                                                       
-----------3----0-----|--2---------------------|-----------3----0-----|
--------0---------0---|-------3-----3----3-----|--------0---------0---|
-----0--------0-----0-|---------2h0----0-------|-----0--------0-----0-|
----------------------|--0--0------------------|----------------------|
----------------------|-------------3----------|----------------------|
--0-------------------|--------------------3-2-|--0-------------------|


                                                                  
--2----3-----3--------|--------3--2----2----|-----------0--------|
---------3------3-----|--------3--0------0--|--------0-----0-----|
-----------0-------0--|-----0-----2---------|-----0-----------0--|
--0--0----------------|---------------------|--------------------|
-------------3--------|-----------2--2------|--------------------|
----------------------|--3------------------|--0-----------------|


                                                                              
--0------0------|--2---2--2-3-2--0--2-|--0------0------|--2---2--2-3-2--0--2-|
--1------2------|--3---3--3-3-3--3--3-|--1------2------|--3---3--3-3-3--3--3-|
--0------2------|--2---2--2-2-2--2--2-|--0------2------|--2---2--2-2-2--2--2-|
--2------2------|--0---0--0-0-0--0--0-|--2------2------|--0---0--0-0-0--0--0-|
--3------0------|---------------------|--3------0------|---------------------|
----------------|---------------------|----------------|---------------------|


                                                                              
--0------0------|--2---2--2-3-2--0--2-|--0------0------|--2---2--2-3-2--0--2-|
--1------2------|--3---3--3-3-3--3--3-|--1------2------|--3---3--3-3-3--3--3-|
--0------2------|--2---2--2-2-2--2--2-|--0------2------|--2---2--2-2-2--2--2-|
--2------2------|--0---0--0-0-0--0--0-|--2------2------|--0---0--0-0-0--0--0-|
--3------0------|---------------------|--3------0------|---------------------|
----------------|---------------------|----------------|---------------------|


                                                             
--0------0------|--2--2-2-2--|--0------------|--------------|
--1------2------|--3--3-3-3--|--0------------|--------------|
--0------2------|--2--2-2-2--|--0------------|--------------|
--2------2------|--0--0-0-0--|--2------------|--------------|
--3------0------|------------|--2------------|--------------|
----------------|------------|--0------------|--------------|


                                                             
-------------------------|----------------------------------|
--15---------------------|----------------------------------|
--14b---14r-12~---14--12-|--11h12h11----11---------12-14-12-|
-------------------------|-----------14----12-14~-----------|
-------------------------|----------------------------------|
-------------------------|----------------------------------|


                                                                   
--------12-------12-------------------|---------------------------|
-----12-------12----15h12----12-------|---------14--14------------|
--14b------14b------------15----15-14-|--12r----14--14-13-12~-----|
--------------------------------------|------14-------------------|
--------------------------------------|---------------------------|
--------------------------------------|---------------------------|


                                                                        
--15--14------15--14-15-17-17-|--15-14h15h14/12----15-14---------------|
----------12------------------|-----------------12-------12------------|
------------------------------|-------------------------------12-14-12-|
------------------------------|----------------------------------------|
------------------------------|----------------------------------------|
------------------------------|----------------------------------------|


                                                                      
--------------------12-------------|----------------|----------------|
--15-------------12-----15-15r--12-|--15b-----------|------------15--|
--14r12----12-14b------------------|----------------|----------------|
--------14-------------------------|----------------|----------------|
-----------------------------------|----------------|----------------|
-----------------------------------|----------------|----------------|


                                                               
---------------------|-----------------|-----------3----0-----|
--12h15h12h-------7h-|--5h7h5----------|--------0---------0---|
---------------------|-----------------|-----0--------0-----0-|
---------------------|-----------------|----------------------|
---------------------|-----------------|----------------------|
---------------------|-----------------|--0-------------------|


                                                                         
--2----3-----0----------|-----------3----0-----|--2---------------------|
---------3------3-------|--------0---------0---|-------3-----3----3-----|
-----------0------0-----|-----0--------0-----0-|---------2h0----0-------|
--0--0------------------|----------------------|--0--0------------------|
-------------3----------|----------------------|-------------3----------|
--------------------3-2-|--0-------------------|--------------------3-2-|


                                                                  
-----------3----0-----|--2----3-----7--------|--------3--2---2---|
--------0---------0---|---------3------3-----|--------3--0---0---|
-----0--------0-----0-|-----------0-------0--|-----0-----2---2---|
----------------------|--0--0----------------|-------------------|
----------------------|-------------3--------|-----------2---2---|
--0-------------------|----------------------|--3----------------|


                                                                
-----------0--------|-----------0-----7--|--7--------7h0-------|
--------0-----0-----|--------0-----0-----|-----0-----0---0-----|
-----0-----------0--|-----0--------------|--------0---------0--|
--------------------|--------------------|---------------------|
--------------------|--------------------|---------------------|
--0-----------------|--0-----------------|--0------------------|


                                                                               
--------7--8--7h8/5--|--7--5h3/2----|-----------0--------|-----------0-----7--|
--0-----0--0---------|--0--------5--|--------0-----0-----|--------0-----0-----|
-----0---------------|--------------|-----0-----------0--|-----0--------------|
---------------------|--------------|--------------------|--------------------|
---------------------|--------------|--------------------|--------------------|
--0------------------|--------------|--0-----------------|--0-----------------|


                                                                                
--7--------7h0-------|--------7--8--7h8/5--|--7--5h3/2----|-----------0--------|
-----0-----0---0-----|--0-----0--0---------|--0--------5--|--------0-----0-----|





Comments