Metallica - Nothing Else Matters Chords & Tabs

 

Nothing Else Matters Chords & Tabs

Metallica Chords & Tabs

Version: 17 Type: Tab 0 ratings
1 star 2 stars 3 stars 4 stars 5 stars
comments

Nothing Else Matters Tab

   
NOTHING ELSE MATTERS-metallica

there are many bad tabs of this song on this site, so here is a good one of the
full song. 
             tabbed by connor manning

6/8                                                     P               H S
|------0----|------0----|------0----|------0---7|7-----7^0----|0---7-8-7^8\5|
|----0---0--|----0---0--|----0---0--|----0---0--|--0---0---0--|----0-0------|
|--0-------0|--0-------0|--0-------0|--0--------|----0-------0|--0----------|
|-----------|-----------|-----------|-----------|-------------|-------------|
|-----------|-----------|-----------|-----------|-------------|-------------|
|0----------|0----------|0----------|0----------|0------------|0------------|

3/8 P S   6/8     P                             P              H P   P  H
|7-5^3\2--|------2^0----|------0-0-0|0-------3^0----0|0-------0^5^0--------|
|0-------5|5---5-----5--|----5---5-5|5----5------5--5|7----7--------7^0-0^5|
|---------|--5---------5|--5-----5-5|5---5-5------5-5|7---7-7--------------|
|---------|-------------|-----------|----------------|---------------------|
|---------|0------------|0-------0-2|3-3------------3|5-5------------------|
|---------|-------------|-----------|----------------|---------------------|

   harm.---|
|--------12----|------0----|------0----|------0----|---------7|-----------|
|--12-12----0--|----0---0--|----0---0--|----0---0--|---------8|----7-----5|
|--12---------0|--0-------0|--0-------0|--0-------0|-------9--|----7-----5|
|--------------|-----------|-----------|-----------|-----9----|--7-----5--|
|--------------|-----------|-----------|-----------|---7------|5-----3----|
|0-------------|0----------|0----------|0----------|0---------|-----------|


|---------7|----------|---------7|----------|-----------|-----0----|-----0----|
|---------8|----7----5|---------8|----7----5|----3-----4|---0---0--|---0---0--|
|-------9--|----7----5|-------9--|----7----5|----4-----2|-0-------0|-0-------0|
|-----9----|--7----5--|-----9----|--7----5--|--5-----4--|----------|----------|
|---7------|5----3----|---7------|5----3----|------2----|----------|----------|
|0---------|----------|0---------|----------|3----------|0---------|0---------|
                      |          |          |           |          |          |
                      |          |          |           | P        |harm.     |
                      |---------7|--5----3--|--3-----2--|----------|12\-------|
                      |-------8--|---7----5-|---3-----4-|----------|12\\------|
                      |-----9----|----7----5|----4-----2|2^0-0-----|12\\\-----|
                      |----------|----------|-----------|---4------|---\\\----|
                      |----------|----------|-----------|----------|----\\\---|
                      |----------|----------|-----------|----------|-----\\\--|
                                                                   drop ½ with 
                                                                     trem. bar
              
|---------3-------0-----|2-----3-----0--------|------------3-----0------|
|------0------------0---|--------3-----3------|--------0-----------0----|
|---0---------0-------0-|----------0-----0----|----0----------0------0--|
|-----------------------|0---0----------------|-------------------------|
|-----------------------|------------3--------|-------------------------|
|0----------------------|------------------3-2|0------------------------|
      so close no matter how far                  couldn’t be much more 

               P
|2-------------------------|---------3-----0-----|2---3-----3-------|
|----------3------3---3----|------0----------0---|------3------3----|
|-------------2^0---0------|---0--------0------0-|--------0-------0-|
|0----0--------------------|---------------------|0-0---------------|
|-----------------3--------|---------------------|----------3-------|
|-----------------------3-2|0--------------------|------------------|
 from the heart                  forever trusting who we are

|-----3--2-----2---|0--------0------|---------0--------|
|-----3--0--------0|------0-----0---|------0-----0-----|
|---0----2---------|---0-----------0|---0--------------|
|------------------|----------------|------------------|
|--------2--2------|----------------|------------------|
|3-----------------|0---------------|0--------------3—2|
   and nothing else matters


|---------3-----0-----|2-----3-----0--------|------------3-------0--------|
|------0----------0---|--------3-----3------|--------0--------------0-----|
|---0--------0------0-|----------0-----0----|----0-----------0---------0--|
|---------------------|0---0----------------|-----------------------------|
|---------------------|------------3--------|-----------------------------|
|0--------------------|------------------3-2|0----------------------------|
|      never opened my|self this way        |     life is ours, we live it|
|(distorted)          |                     |                             |
|---------------------|---------------------|-----------------------------|
|8--------------------|10----12---8---------|(8)--------------------------|
|9--------------------|11----12---9---------|(9)--------------------------|
|---------------------|---------------------|-----------------------------|
|---------------------|---------------------|-----------------------------|
|---------------------|---------------------|-----------------------------|

               P
|2-------------------------|-----------3------0-----|2---3-----3-------|
|----------3------3---3----|-------0------------0---|------3------3----|
|-------------2^0---0------|---0----------0-------0-|--------0-------0-|
|0----0--------------------|------------------------|0-0---------------|
|-----------------3--------|------------------------|----------3-------|
|-----------------------3-2|0-----------------------|------------------|
|our way                   |  all these words I dont|just say          |
|                          |                        |                  |
|--------------------------|------------------------|------------------|
|10--12--13----------------|12----------------------|10---12---8-------|
|11--12--12----------------|12----------------------|11---12---9-------|
|--------------------------|------------------------|------------------|
|--------------------------|------------------------|------------------|
|--------------------------|------------------------|------------------|


|-----3--2-----2---|0--------0------|---------0--------|
|-----3--0--------0|------0-----0---|------0-----0-----|
|---0----2---------|---0-----------0|---0--------------|
|------------------|----------------|------------------|
|--------2--2------|----------------|------------------|
|3-----------------|0---------------|0--------------3—2|
|  and nothing else|matters         |                  |
|------------------|----------------|------------------|
|8------7----------|----------------|------------------|
|------------------|9---------------|(9)---------------|
|9-----------------|(9)-------------|(9)---------------|
|------------------|----------------|------------------|
|------------------|----------------|------------------|


|---------3-------0-----|2-----3-----0--------|------------3-----0-----|
|------0------------0---|--------3-----3------|--------0-----------0---|
|---0---------0-------0-|----------0-----0----|----0----------0------0-|
|-----------------------|0---0----------------|------------------------|
|-----------------------|------------3--------|------------------------|
|0----------------------|------------------3-2|0-----------------------|
|     trust I seek and I|find in you          |        ev’ry day for us| 
|                       |                     |                        | 
|-----------------------|---------------------|------------------------|
|-----------------------|---------------------|------------------------|
|-----------------------|---------------------|------------------------|
|-----------5-5/7---7\ 5|-4-------------------|--------5-----5/7----7\5|
|-----------7-7/9---9\ 7|-5---7---7-----------|--------7-----7/9----9\7|
|-----------------------|---------------------|------------------------|

               P
|2-------------------------|---------3-----0-----|2---3-----3-------|
|----------3------3---3----|------0----------0---|------3------3----|
|-------------2^0---0------|---0--------0------0-|--------0-------0-|
|0----0--------------------|---------------------|0-0---------------|
|-----------------3--------|---------------------|----------3-------|
|-----------------------3-2|0--------------------|------------------|
|something new             |      open mind for a|diff’rent view    |
|                          |                     |                  |
|--------------------------|---------------------|------------------|
|--------------------------|---------------------|------------------|
|--------------------------|---------------------|-----0------------|
|4------0------0-----------|------5----5/7---7\5-|4--------------2--|
|5-------------------------|------7----7/9---9\7-|5--------------3--|
|--------------------------|---------------------|------------------|

|-----3--2-----2---|0--------0------|
|-----3--0--------0|------0-----0---|
|---0----2---------|---0-----------0|
|------------------|----------------|
|--------2--2------|----------------|
|3-----------------|0---------------|
|  and nothing else|matters         |
|                  |                |
|------------------|----------------|
|------------------|-------5-7-8-7-5|
|------------------|----------------|
|0-----------------|----------------|
|2-2-3-2------2-3-2|----------------|
|------------------|----------------|

|0---0-|2---2-2-2---3--2----0-------2|0---0-|2---2---2-2-2---3--2----0-------2|
|1---2-|3---3-3-3---3--3----3-------3|1---2-|3---3---3-3-3---3--3----3-------3|
|0---2-|2---2-2-2---2--2----2-------2|0---2-|2---2---2-2-2---2--2----2-------2|
|2---2-|0---0-0-0---0--0----0-------0|2---2-|0---0---0-0-0---0--0----0-------0|
|3---0-|-----------------------------|3---0-|---------------------------------|
|------|-----------------------------|------|---------------------------------|
            never cared for what they do             never cared for what they

       3/8       6/8
|0---0-|2---2-2-2|0----|------0----|------0----|
|1---2-|3---3-3-3|0----|----0---0--|----0---0--|
|0---2-|2---2-2-2|1----|--0-------0|--0-------0|
|2---2-|0---0-0-0|2----|-----------|-----------|
|3---0-|---------|2----|-----------|-----------|
|------|---------|0----|0----------|0----------|
 know       but I know

|---------3-------0-----|2-----3-----0--------|------------3-----0------|
|------0------------0---|--------3-----3------|--------0-----------0----|
|---0---------0-------0-|----------0-----0----|----0----------0------0--|
|-----------------------|0---0----------------|-------------------------|
|-----------------------|------------3--------|-------------------------|
|0----------------------|------------------3-2|0------------------------|
      so close no matter how far                  couldn’t be much more 

               P
|2-------------------------|---------3-----0-----|2---3-----3-------|
|----------3------3---3----|------0----------0---|------3------3----|
|-------------2^0---0------|---0--------0------0-|--------0-------0-|
|0----0--------------------|---------------------|0-0---------------|
|-----------------3--------|---------------------|----------3-------|
|-----------------------3-2|0--------------------|------------------|
 from the heart                  forever trusting who we are

|-----3--2-----2---|0--------0------|
|-----3--0--------0|------0-----0---|
|---0----2---------|---0-----------0|
|------------------|----------------|
|--------2--2------|----------------|
|3-----------------|0---------------|
   and nothing else matters

|0---0-|2---2-2-2---3--2----0-------2|0---0-|2---2---2-2-2---3--2----0-------2|
|1---2-|3---3-3-3---3--3----3-------3|1---2-|3---3---3-3-3---3--3----3-------3|
|0---2-|2---2-2-2---2--2----2-------2|0---2-|2---2---2-2-2---2--2----2-------2|
|2---2-|0---0-0-0---0--0----0-------0|2---2-|0---0---0-0-0---0--0----0-------0|
|3---0-|-----------------------------|3---0-|---------------------------------|
|------|-----------------------------|------|---------------------------------|
            never cared for what they do             never cared for what they

       3/8       6/8
|0---0-|2---2-2-2|0----|------0----|------0----|
|1---2-|3---3-3-3|0----|----0---0--|----0---0--|
|0---2-|2---2-2-2|1----|--0-------0|--0-------0|
|2---2-|0---0-0-0|2----|-----------|-----------|
|3---0-|---------|2----|-----------|-----------|
|------|---------|0----|0----------|0----------|
 know       but I know

[ Tab from: http://www.guitartabs.cc/tabs/m/metallica/nothing_else_matters_tab_ver_17.html ]
|12--14--|15--17--|8----8----|----8-----|0------0--|0------0--|0-7----7-0----|
|--12--12|--12--12|--5----5--|--5---5---|---1-----1|---3-----3|----0------0--|
|--------|--------|----5----5|5-------5\|-----0----|-----2----|------0------0|
|--------|--------|----------|----------|----------|----------|--------------|
|--------|--------|----------|----------|----------|----------|--------------|
|--------|--------|----------|----------|----------|----------|--------------|
|        |        |          |          |          |          |              |
|15--17--|19--20--|12--------|----------|/12-------|/14-------|--12---12-----|
|--17--17|--17--17|--13------|----------|---13-----|---15-----|12-------12---|
|--------|--------|----------|----------|-----12---|-----14---|--------------|
|--------|--------|----------|----------|----------|----------|--------------|
|--------|--------|----------|----------|----------|----------|--------------|
|--------|--------|----------|----------|----------|----------|--------------|


|12--14--|15--17--|8----8----|----8-----|0--------------0------|0--------0---|
|--12--12|--12--12|--5----5--|--5---5---|-----1--------------1-|---3--------3|
|--------|--------|----5----5|5-------5\|----------0-----------|------2------|
|--------|--------|----------|----------|----------------------|-------------|
|--------|--------|----------|----------|----------------------|-------------|
|--------|--------|----------|----------|----------------------|-------------|
|        |        |          |          |     H     H     B    |             |
|15--17--|19--20--|12--------|----------|----------------------|-------------|
|--17--17|--17--17|--13------|----------|----------------------|--12----12---|
|--------|--------|----------|----------|12-12^14-12^14-14^(15)|12-----------|
|--------|--------|----------|----------|----------------------|-----------14|
|--------|--------|----------|----------|----------------------|-------------|
|--------|--------|----------|----------|----------------------|-------------|


|0---7----------7---0--------|---------0--------|
|--------0--------------0----|------0-----0-----|
|------------0--------------0|---0--------------|
|----------------------------|------------------|
|----------------------------|------------------|
|----------------------------|0--------------3-2|
|       B    R  P       H    |                  |
|----------------------------|------------------|
|--15-15---------------------|------------------|
|--14-14^(16)^14^12--------12|------------------|
|------------------14-12^14--|------------------|
|----------------------------|------------------|
|----------------------------|------------------|

|---------3-----0-----|2-----3-----0--------|------------3-------0--------|
|------0----------0---|--------3-----3------|--------0--------------0-----|
|---0--------0------0-|----------0-----0----|----0-----------0---------0--|
|---------------------|0---0----------------|-----------------------------|
|---------------------|------------3--------|-----------------------------|
|0--------------------|------------------3-2|0----------------------------|
|      never opened my|self this way        |     life is ours, we live it|
|(distorted)          |                     |                             |
|---------------------|---------------------|-----------------------------|
|8--------------------|10----12---8---------|(8)--------------------------|
|9--------------------|11----12---9---------|(9)--------------------------|
|---------------------|---------------------|-----------------------------|
|---------------------|---------------------|-----------------------------|
|---------------------|---------------------|-----------------------------|

               P
|2-------------------------|-----------3------0-----|2---3-----3-------|
|----------3------3---3----|-------0------------0---|------3------3----|
|-------------2^0---0------|---0----------0-------0-|--------0-------0-|
|0----0--------------------|------------------------|0-0---------------|
|-----------------3--------|------------------------|----------3-------|
|-----------------------3-2|0-----------------------|------------------|
|our way                   |  all these words I dont|just say          |
|                          |                        |                  |
|--------------------------|------------------------|------------------|
|10--12--13----------------|12----------------------|10---12---8-------|
|11--12--12----------------|12----------------------|11---12---9-------|
|--------------------------|------------------------|------------------|
|--------------------------|------------------------|------------------|
|--------------------------|------------------------|------------------|


|-----3--2-----2---|0--------0------|---------0--------|
|-----3--0--------0|------0-----0---|------0-----0-----|
|---0----2---------|---0-----------0|---0--------------|
|------------------|----------------|------------------|
|--------2--2------|----------------|------------------|
|3-----------------|0---------------|0--------------3—2|
|  and nothing else|matters         |                  |
|------------------|----------------|------------------|
|8------7----------|----------------|------------------|
|------------------|9---------------|(9)---------------|
|9-----------------|(9)-------------|(9)---------------|
|------------------|----------------|------------------|
|------------------|----------------|------------------|

|---------3-------0-----|2-----3-----0--------|------------3-----0-----|
|------0------------0---|--------3-----3------|--------0-----------0---|
|---0---------0-------0-|----------0-----0----|----0----------0------0-|
|-----------------------|0---0----------------|------------------------|
|-----------------------|------------3--------|------------------------|
|0----------------------|------------------3-2|0-----------------------|
|     trust I seek and I|find in you          |        ev’ry day for us| 
|                       |                     |                        | 
|-----------------------|---------------------|------------------------|
|-----------------------|---------------------|------------------------|
|-----------------------|---------------------|------------------------|
|-----------5-5/7---7\ 5|-4-------------------|--------5-----5/7----7\5|
|-----------7-7/9---9\ 7|-5---7---7-----------|--------7-----7/9----9\7|
|-----------------------|---------------------|------------------------|

               P
|2-------------------------|---------3-----0-----|2---3-----3-------|
|----------3------3---3----|------0----------0---|------3------3----|
|-------------2^0---0------|---0--------0------0-|--------0-------0-|
|0----0--------------------|---------------------|0-0---------------|
|-----------------3--------|---------------------|----------3-------|
|-----------------------3-2|0--------------------|------------------|
|something new             |      open mind for a|diff’rent view    |
|                          |                     |                  |
|--------------------------|---------------------|------------------|
|--------------------------|---------------------|------------------|
|--------------------------|---------------------|-----0------------|
|4------0------0-----------|------5----5/7---7\5-|4--------------2--|
|5-------------------------|------7----7/9---9\7-|5--------------3--|
|--------------------------|---------------------|------------------|

|-----3--2-----2---|0--------0------|
|-----3--0--------0|------0-----0---|
|---0----2---------|---0-----------0|
|------------------|----------------|
|--------2--2------|----------------|
|3-----------------|0---------------|
|  and nothing else|matters         |
|                  |                |
|------------------|----------------|
|------------------|-------5-7-8-7-5|
|------------------|----------------|
|0-----------------|----------------|
|2-2-3-2------2-3-2|----------------|
|------------------|----------------|


|0---0-|2---2-2-2---3--2----0-------2|0---0-|2---2---2-2-2---3--2----0-------2|
|1---2-|3---3-3-3---3--3----3-------3|1---2-|3---3---3-3-3---3--3----3-------3|
|0---2-|2---2-2-2---2--2----2-------2|0---2-|2---2---2-2-2---2--2----2-------2|
|2---2-|0---0-0-0---0--0----0-------0|2---2-|0---0---0-0-0---0--0----0-------0|
|3---0-|-----------------------------|3---0-|---------------------------------|
|------|-----------------------------|------|---------------------------------|
            never cared for what they say           never cared for games they

|0---0-|2---2-2-2---3--2----0-------2|0---0-|2---2---2-2-2---3--2----0-------2|
|1---2-|3---3-3-3---3--3----3-------3|1---2-|3---3---3-3-3---3--3----3-------3|
|0---2-|2---2-2-2---2--2----2-------2|0---2-|2---2---2-2-2---2--2----2-------2|
|2---2-|0---0-0-0---0--0----0-------0|2---2-|0---0---0-0-0---0--0----0-------0|
|3---0-|-----------------------------|3---0-|---------------------------------|
|------|-----------------------------|------|---------------------------------|
            never cared for what they do             never cared for what they 

       3/8       6/8
|0---0-|2---2-2-2|0----|------0----|------0----|
|1---2-|3---3-3-3|0----|----0---0--|----0---0--|
|0---2-|2---2-2-2|1----|--0-------0|--0-------0|
|2---2-|0---0-0-0|2----|-----------|-----------|
|3---0-|---------|2----|-----------|-----------|
|------|---------|0----|0----------|0----------|
 know       but I know

solo(distorted)
   B         B    R                   H  P
|----------------------------------|--------------------------------|
|15--------------------------------|--------------------------------|
|14^(16)---14^(16)^14-12~~~---14-12|11^12^11----11----------12-14-12|
|----------------------------------|---------14----12-14~~~---------|
|----------------------------------|--------------------------------|
|----------------------------------|--------------------------------|

   B         B         P              B    R                      S
|-------12--------12---------------|--------------------------------|
|----12--------12----15^12--12-----|------------14-14-13------------|
|14^(16)---14^(16)--------15--15-14|12^(14)^12--14-14-13-12~~~(12)\-|
|----------------------------------|----------14--------------------|
|----------------------------------|--------------------------------|
|----------------------------------|--------------------------------|

 S                S           H  P  S
|/15-14---15-14-15/17-17|15-14^15^14\12--15-14------------|
|------12---------------|--------------12-----12----------|
|-----------------------|-------------------------12-14-12|
|-----------------------|---------------------------------|
|-----------------------|---------------------------------|
|-----------------------|---------------------------------|

   B    R  P      B            B    R  P     B          R  P  H  P S  S H P
|----------------------12----------------|-------|-------|------------|-----|
|15-----------------12---15-15^(17)^15^12|15^(17)|(17)^15^12^15^12 \ 7\5^7^5|
|14^(16)^14^12--14^(16)------------------|-------|-------|------------|-----|
|-------------14-------------------------|-------|-------|------------|-----|
|----------------------------------------|-------|-------|------------|-----|
|----------------------------------------|-------|-------|------------|-----|


|---------3-------0-----|2-----3-----0--------|------------3-----0------|
|------0------------0---|--------3-----3------|--------0-----------0----|
|---0---------0-------0-|----------0-----0----|----0----------0------0--|
|-----------------------|0---0----------------|-------------------------|
|-----------------------|------------3--------|-------------------------|
|0----------------------|------------------3-2|0------------------------|
|     so close no matter|how far              |   couldn’t be much more |
B-----------------------|7------8------5------|(5)----------------------|
G-----------------------|---------------------|-------------------------|

               P
|2-------------------------|---------3-----0-----|2---3-----3-------|
|----------3------3---3----|------0----------0---|------3------3----|
|-------------2^0---0------|---0--------0------0-|--------0-------0-|
|0----0--------------------|---------------------|0-0---------------|
|-----------------3--------|---------------------|----------3-------|
|-----------------------3-2|0--------------------|------------------|
|from the heart            |     forever trusting|who we are        |
B-7--------8---------------|---------------------|7-------8/12------|
G-----------------7--------|(7)------------------|------------------|


|-----3--2-----2---|0--------0------|---------0----7-|
|-----3--0--------0|------0-----0---|------0-----0---|
|---0----2---------|---0-----------0|---0------------|
|------------------|----------------|----------------|
|--------2--2------|----------------|----------------|
|3-----------------|0---------------|0---------------|
   and nothing else matters
  
        P               H P S 3/8 S
|--7-----7^0----|----7-8-7^8^7\5|7-5\3-0|0-----0----|------0---7--|
|----0-------0--|----0-0--------|0------|----0---0--|----0---0----|
|o-----0-------0|--0------------|-------|--0-------0|--0---------o|
|o--------------|---------------|-------|-----------|------------o|
|---------------|---------------|-------|-----------|-------------|
|--0------------|0--------------|-------|0----------|0------------|
 repeat and fade


                                                   CONNOR
Comments