Metallica - Nothing Else Matters Chords & Tabs

 

Nothing Else Matters Chords & Tabs

Metallica Chords & Tabs

Version: 15 Type: Tab 0 ratings
1 star 2 stars 3 stars 4 stars 5 stars
comments

Nothing Else Matters Tab

Finger Picking

h = Hammer On
p = Pull Off
/ = Slide
~ = Vibrato
* = Harmonic


Intro:

--------------0----------------------
----------0------0-------------------
------0--------------0---------------   x3
-------------------------------------
-------------------------------------
--0----------------------------------

--------------0------7----7---------7p0---------
---------0-------0------------0-----0-----0-----
-----0---------------------------0------------0-
------------------------------------------------
------------------------------------------------
--0-----------------------0---------------------

-0---------7--8----7h8/5--7--5p3/2-----------------
-----------0--0-----------0---------5----5-------5-
-----0---------------------------------------5-----
---------------------------------------------------
-----------------------------------------0---------
-0-------------------------------------------------

-2p0-------------------------0----0---0---0-------
-------5----------------5---------5---5---5-------
-----------5--------5-------------5---5---5------5
--------------------------------------------------
---------------0------------------0---2---3---3---
--------------------------------------------------

---------3p0-----------0---0--------------------
-5------------5--------5---7------------7-------
------5-----------5----5---7-------7--------7---
------------------------------------------------
-----------------------3---5---5----------------
------------------------------------------------

-0h5p0----------------------------12*------
---------7p0--0h5-------12*--12*-------0---
------------------------12*---------------0
-------------------------------------------
-------------------------------------------
--------------------0----------------------

--------------0----------------------
----------0------0-------------------
------0--------------0---------------   x3
-------------------------------------
-------------------------------------
--0----------------------------------
[ Tab from: http://www.guitartabs.cc/tabs/m/metallica/nothing_else_matters_tab_ver_15.html ]
----------------7------------------------
----------------8------------7---------5-
-------------9---------------7---------5-  Repeat
----------9---------------7---------5----
-------7---------------5---------3-------
-0---------------------------------------

--------------------
-------3---------4--
-------4---------2--
----5---------4-----
-----------2--------
-3------------------

--------------0----------------------
----------0------0-------------------
------0--------------0---------------  Repeat
-------------------------------------
-------------------------------------
--0----------------------------------

Gt. 2:

--------7----5----------3----------3----------2-------
-----8----------7----------5----------3----------4----
--9----------------7----------5----------4----------2-
------------------------------------------------------
------------------------------------------------------
------------------------------------------------------

                 (slide 1/2 step)
----------------------12*-/-----
----------------------12*-/-----
--2p0-----0-----------12*-/-----
-------4------------------------
--------------------------------
--------------------------------

------------3-----0----------2--------3----------0--
--------0------------0-------------------3----------
----0----------0--------0-------------------0-------
-----------------------------0-----0----------------
-------------------------------------------------3--
-0--------------------------------------------------

-------------------------------3--------0----------
-3-----------------------0------------------0------
-----0---------------0--------------0-----------0--
---------------------------------------------------
---------------------------------------------------
----------3--2--0----------------------------------

-2------------------------------------
----------3------3----------3---------
------------2p0---------0-------------
-0----0-------------------------------
-----------------3--------------------
--------------------------------3--2--
Comments