Metallica - Nothing Else Matters Chords & Tabs

 

Nothing Else Matters Chords & Tabs

Metallica Chords & Tabs

Version: 14 Type: Tab 0 ratings
1 star 2 stars 3 stars 4 stars 5 stars
comments

Nothing Else Matters Tab

   
artist: MetallicA. 
song: nothing else matters solo.
transcribed by craig whyte. 
i done this coz every other tab is shit.so i borrowed the book THIS IS CORRECT!
ps its normal E tuning.

Notation:
/=slide
^=bend
~=vibrato
p=pull
h=hammer
t=trill
FT=fret tap

e---------------------------------------------------|
B-15-----15---------------H--P----------------------|
G-14^16--14^16-12-14-12-11-12-11--11-----12-14-12---|
D-------------------------------12--12/14-----------|
A---------------------------------------------------|
E---------------------------------------------------|
[ Tab from: http://www.guitartabs.cc/tabs/m/metallica/nothing_else_matters_tab_ver_14.html ]
e------12-----12------------------------------------|
B-----12-----12--15-12-15-14-12----14-14-13---------|
G-14^16--14^16------------------14-14-14-13-12------|
D---------------------------------------------------|
A---------------------------------------------------|
E---------------------------------------------------|
                        h  P
e-15-14---15-14-15/17-15-17-15---15-14-------------------|
B------12---------------------12-------12----------------|
G-----------------------------------------12-14-12-14^16-|
D--------------------------------------------------------|
A--------------------------------------------------------|
E--------------------------------------------------------|
*HOLD BEND
e-------------12--H--P--------------H--P---------H-P-----|
B-----------12--12-15-12--15^17*--12-15-12-12\7-5-7-5----|
G-----14^16----------------------------------------------|
D---12---------------------------------------------------|
A-12-----------------------------------------------------|
E--------------------------------------------------------|  
corrections/abuse to craig13@cableinet.co.uk but im telling you this from the book s
o i dont want any shit
Comments