Metallica - Nothing Else Matters Live Chords & Tabs

 

Nothing Else Matters Live Chords & Tabs

Metallica Chords & Tabs

Version: 1 Type: Tab 0 ratings
1 star 2 stars 3 stars 4 stars 5 stars
comments

Nothing Else Matters Live Tab

 



 Tabs for 

"Nothing Else Matters (Live)"

Nothing Else Matters - Live
written by Hetfield and Ulrich
as performed on S&M
tab by Phil Boyle; phil@encycmet.com


This song is essentially played like the studio version.  Just like every other
song that was recorded in standard tuning, it is now played in E flat.  The riffs
that follow are substitutions for the studio tab.


Tune all guitars down 1/2 step

2a) 
eb--------0-------------0--------------------------
Bb------0---0-----------8-----7--------------------
Gb----0-------0-------9-------7--------------------
Db------------------9-------7----------------------
Ab----------------7-------5------2h3p2-0h2p0-------
Eb--0-----------0-----------------------------3-2-0
played by James the second time
Click here to hear a real audio example of this riff.

[ Tab from: http://www.guitartabs.cc/tabs/m/metallica/nothing_else_matters_live_tab.html ]
3)
eb------------3-p0---2-2-2h3-0------ 2 -------3-p0---2-2-2h3--3-3-3------3------2--
Bb----------0------0-3-3-3-3-3------ t -----0------0-3-3-3-3--3-3-3------3------0--
Gb--------0----------2-2-2-2-0------ i ---0----------2-2-2-2--0-0-0----------------
Db-------------------0-0-0-0-2------ m --------------0-0-0-0--2---------------0----
Ab---------------------------3------ e -----------------------3--------2----2------
Eb--3-2-0----------------------3-2-0 s -0----------------------------3------------0
verse
Click here to hear a real audio example of this riff.

_________________
solo:

2)                                                                           ^
eb-----------------12-------12--------------------------------------------------
Bb--------------12-------12----15p13p12-15p13p12-15p13p12-15p13p12-15p13p12--15~
Gb--12-14-12-14-------14--------------------------------------------------------
Db------------------------------------------------------------------------------
Ab------------------------------------------------------------------------------
Eb------------------------------------------------------------------------------
Click here to hear a real audio example of this riff.


3) ^
eb--15--15-15-14-15-14-12-15-14-12-15-14---------
Bb---------------------------------------15-13-12
Gb-----------------------------------------------
Db-----------------------------------------------
Ab-----------------------------------------------
Eb-----------------------------------------------
Click here to hear a real audio example of this riff.


 
 


 




 
 

Comments