Metallica - Nothing Else Matters Chords & Tabs

 

Nothing Else Matters Chords & Tabs

Metallica Chords & Tabs

Version: 4 Type: Bass Tab 0 ratings
1 star 2 stars 3 stars 4 stars 5 stars
comments

Nothing Else Matters Bass Tab

Band-Metallica
Album-Black
Song-Nothing Else Matters

Bass Fig 1-

E--0------------8r------------3-2------------
A-------7r-----------------------------------
D--------------------------------------------
G--------------------------------------------

Repeat as many times as necessary.

Bass Fig 2-

E----------------------------------------------3---000000000---
A---3--0--5r---------3--0--5r-----------3-0------2-------------
D--------------------------------------------------------------
G--------------------------------------------------------------

Repeat Bass Fig 1
Bass Fig 3 Ė

E--0-----------0-------------0-----------0------7\5---
A-----7---7-7-----7---7-7-----7--7-7-----7------------
D-----------------------------------------------------
G-----------------------------------------------------

Bass Fig 4-

E-------5-5----5-\8----8-8---------------------------
A-------------------------------5\7---7-7ó7\8--------
D----------------------------------------------------
G----------------------------------------------------



Bass Fig 5-
[ Tab from: http://www.guitartabs.cc/tabs/m/metallica/nothing_else_matters_btab_ver_4.html ]
E--0--------0--0--0--0--------3--2-------
A-------7----------------7\--------------
D----------------------------------------
G----------------------------------------

Bass Fig 6-

E----------5----5--7ó8---8-8--------------------------------------
A------7---------------------------5\7-----------5-------------7--
D--7----------------------------------------7-----------5---------
G-----------------------------------------------------------------

Bass Fig 9-

Eó0----------------------------0-0-0-0-0-0-0-0-0-0-0-0----
A----------------7----------------------------------------
D---------------------------------------------------------
G---------------------------------------------------------

Guitar solo-

E--0-------------8----------------3-2-0----------
A------7-----5-----------------------------------
D------------------------------------------------
G------------------------------------------------
Repeat as many times as needed.

Play this the last time you play the guitar solo part

Eó0-----------8-----------------3-2-3-------0---
A-----7-----5-----------------------------2-----
D-----------------------------------------------
G-----------------------------------------------

Thatís it hope you enjoy it, any corrections e-mail me at
3fpacy02@reaseheath.ac.uk. Peace out yall. 

Quentin Fortune. ;)
Comments