Metallica - No Leaf Clover Chords & Tabs

 

No Leaf Clover Chords & Tabs

Metallica Chords & Tabs

Version: 9 Type: Tab 0 ratings
1 star 2 stars 3 stars 4 stars 5 stars
comments

No Leaf Clover Tab

   
Metallica, No Leaf Clover
Matt Woodley, badseed_08@hotmail.com
Metallica
"No Leaf Clover" from S&M
Matt Woodley 
http://surf.to/guitallica

1a)
eb--7---7---8----8----7---7---8----8---
Bb--8---8---10---10---7---7---10---10--
Gb----9---9----9----9---8---8----9----9
Db-------------------------------------
Ab-------------------------------------
Eb-------------------------------------

1b) continued
eb--7---7---8----8----7---7-----------------
Bb--8---8---10---10---7---7------7-10---7-10
Gb----9---9----9----9---8---8--8------8-----
Db------------------------------------------
Ab------------------------------------------
Eb------------------------------------------

1c) continued
eb--7---7---8----8----7---7-----------10-8---
Bb--8---8---10---10---7---7------7-10------10
Gb----9---9----9----9---8---8--8-------------
Db-------------------------------------------
Ab-------------------------------------------
Eb-------------------------------------------

1d) continued
eb--7---7---8----8----7---7------------8---
Bb--8---8---10---10---7---7------7-10----10
Gb----9---9----9----9---8---8--8-----------
Db-----------------------------------------
Ab-----------------------------------------
Eb-----------------------------------------
Clean opening riff.  Play a, b, c, and d straight through


2)A                B                     C 
Db--------------  -2-----2----          -4-----4-----------------
Ab----2~---3~-2~  -2-----2----  x3 then -4-----4-------2~---3~-2~ x1
Eb--0---0-------  -0-0-0-0-0-0          -2-2-2-2-2-2-0---0-------
    .   .            ...   ...             ...   ... .   .
                   W     W               W     W
W = Kirk plays this part with wah

3)
Gb------    -----    ----------------------------
Db--2--4    -5--4    -2--4-----5--4-4-4-4-4-4-4-4
Ab--0--2 2A -3--2 2A -0--2--5--3--2-2-2-2-2-2-2-2
Eb------    -----    -------3--------------------
                                  ...............
   "Can he feel it's bright this time?"

[ Tab from: http://www.guitartabs.cc/tabs/m/metallica/no_leaf_clover_tab_ver_9.html ]
4a)
eb--0-0-0-0-0--0--0--0--0--0---2-2-2-2-2--0--0--0--0--0
Bb--0-0-0-0-0--1--1--1--1--1---4-4-4-4-4--1--1--1--1--1
Gb--0-0-0-0-0--2--2--2--2--2---4-4-4-4-4--2--2--2--2--2
Db--2-2-2-2-2--2--2--2--2--2---4-4-4-4-4--2--2--2--2--2
Ab--2-2-2-2-2--0--0--0--0--0---2-2-2-2-2--0--0--0--0--0
Eb--0-0-0-0-0------------------------------------------
Play riff 1a) twice then this riff 
"The it comes to be that the soothing light..."

4b)
eb--0-0-0-0-0--2-2-2-2-2--0-0-0-0-0--0-0-0-0--2-2-2-2--2--2--2--2--2
Bb--1-1-1-1-1--4-4-4-4-4--0-0-0-0-0--1-1-1-1--3-3-3-3--4--4--4--4--4
Gb--0-0-0-0-0--4-4-4-4-4--0-0-0-0-0--0-0-0-0--2-2-2-2--4--4--4--4--4
Db--2-2-2-2-2--4-4-4-4-4--2-2-2-2-2--2-2-2-2--0-0-0-0--4--4--4--4--4
Ab--3-3-3-3-3--2-2-2-2-2--2-2-2-2-2--3-3-3-3-----------2--2--2--2--2
Eb------------------------0-0-0-0-0---------------------------------
"It's coming your way, yeah, it's coming your way..."

4c)    ^ V
eb----------------------- ---------
Bb--11-----(11)---\10---- ---------
Db---------------------9~ -----8~-~
Lead fill over 4a, listen very carefully


5)
Gb---------------------------------------------------------------------------------------
Db--2-2-2--2--2-2-2--2-2-2-5--2-2-2--2--2-2-2--2-2-2-4--2-2-2--2--2-2-2--2-2-2-5---------
Ab--2-2-2--2--2-2-2--2-2-2-5--2-2-2--2--2-2-2--2-2-2-2--2-2-2--2--2-2-2--2-2-2-5----5---5
Eb--0-0-0--0--0-0-0--0-0-0-3--0-0-0--0--0-0-0--0-0-0----0-0-0--0--0-0-0--0-0-0-3--0-3-0-3
    pm.............  .....    ...............  .....    ...............  .....    .   .


6)  A                          B
Gb-------2----4----2-----     ------4----5----4-----
Db--2----2----4----2----2     -2----4----5----4----2
Ab--2----0----2----0----2     -2----2----3----2----2
Eb--0-------------------0     -0-------------------0
These chords are strummed 3 or 4 times each
6A starts when Kirk starts playing riff 7b.
6a continues through the first two "And it comes to be" lines,
then switches to 6b for the rest.


7a)               ^               ^
eb---------------------------------
Bb--8---8---8---8---8---8---8---8--
Gb----9---9---9---8---9---9---9---7
Db---------------------------------
Ab---------------------------------
Eb---------------------------------

7b)
eb---------------------------------------------
Bb--8---8-----10---10-----7---7-----10---10----
Gb----9---9\8----9----9\8---8---8-8----9----9\-
Db---------------------------------------------
Ab---------------------------------------------
Eb---------------------------------------------
Kirk, distorted

Comments