Metallica - No Leaf Clover Chords & Tabs

 

No Leaf Clover Chords & Tabs

Metallica Chords & Tabs

Version: 2 Type: Tab 0 ratings
1 star 2 stars 3 stars 4 stars 5 stars
comments

No Leaf Clover Tab

   
Song: No leaf clover
Artist: Metallica
Album: S&M
Date: August 24th,2002

Doubts or coments: rockwine@hotmail.com

Tunning (1/2 tone down)
-eb---------
-Bb---------
-Gb---------
-Db---------
-Ab---------
-Eb---------

INTRO ORQUESTA
 Eb5                 F#5                    E5                     E5
--------------------------------------------------------------------------------
-------------------------------------------------------------------------------- play
-------------------------------------------------------------------------------- twice
-2-----2-----2-----2-5--2-----2-----2-----2-3--2-----2-----2-----2-3----3----3--
-2-----2-----2-----2-5--2-----2-----2-----2-3--2-----2-----2-----2-3----3----3--
-0-0-0-0-0-0-0-0-0-0-3--0-0-0-0-0-0-0-0-0-0-1--0-0-0-0-0-0-0-0-0-0----0----0----
 =======P.M=========    ========P.M========    ========P.M========

INTRO (clean)
 Ebm      G#m       Bb7     G#m
--7---7---8----8----7---7---8----8-----7---7---8----8----7---7------------------
--8---8---10---10---7---7---10---10----8---8---10---10---7---7-------10-----10--
----9---9----9----9---8---8----9----9----9---9----9----9---8---8-8/9----8/9-----
--------------------------------------------------------------------------------
--------------------------------------------------------------------------------
--------------------------------------------------------------------------------

--7---7---8----8----7---7-------10-8---7---7---8----8----7---7---------10p8-----
--8---8---10---10---7---7------10---10-8---8---10---10---7---7-----10-7----10-7-
----9---9----9----9---8---8-8/9----------9---9----9----9---8--8-8/9-------------
--------------------------------------------------------------------------------
--------------------------------------------------------------------------------
--------------------------------------------------------------------------------

INTRO 	(heavy distortion)
                                             
--------------------------      ---------------
--------------------------      ---------------
--------------------------      ---------------
-------------2-----2------ 3x   --4-----4------
----2¬--3¬2¬-2-----2------ then --4-----4------
--0---0------0-0-0-0-0-0--      --2-2-2-2-2-2--
               =P.M  ====          =P.M=  ====

VERSE (heavy distotion)
            G#5 Bb5          B5 Bb5        G#5 Bb5 F#5 B5 Bb5
------------------------------------------------------------------------------
------------------------------------------------------------------------------
-------------2--4------------5--4------------2--4-----5--4-4-4-4-4-4-4-4-4-4--
-------------2--4------------5--4------------2--4--5--5--4-4-4-4-4-4-4-4-4-4--
---2¬--3¬2¬--0--2---2~--3~2~-3--2---2~--3~2~-0--2--5--3--2-2-2-2-2-2-2-2-2-2--
-0---0------------0---0-----------0---0------------3--------------------------
                                                        

CHORUS

(rhythm guitar)
--7---7---8----8----7---7---8----8-----
--8---8---10---10---7---7---10---10---- repeat twice
----9---9----9----9---8---8----9----9-- then 
---------------------------------------
---------------------------------------
---------------------------------------

RHYTHM GUITAR strum following chords
 Ebm    G#m    Bb7    G#m           while lead guitar play licks like this:
--0------0------2------0----        ---------------------------------------
--0------1------0------1----        ---------------------------------------
--0------2------2------2----        -14-12v---------------14b16r14p12------
--2------2------1------2----        -------14v--13-14-13v-------------14v--
--2------0------2------0----        ---------------------------------------
--0-------------------------        ---------------------------------------
...do this twice too


INTERLUDE

RHYTHM GUITAR (clean)
   B         Bb7       Ebm                 B        C#       Bb7
---0--0-0-0--2--2-2-2--0--0-0-0--0--0-0-0--0-0-0-0--2-2-2-2-----------------------------
---1--1-1-1--0--0-0-0--0--0-0-0--0--0-0-0--1-1-1-1--3-3-3-3-----------------------------
---0--0-0-0--2--2-2-2--0--0-0-0--0--0-0-0--0-0-0-0--2-2-2-2--2--2--2--2--2--------------
---2--2-2-2--1--1-1-1--2--2-2-2--2--2-2-2--2-2-2-2--0-0-0-0--1--1--1--1--1--------------
---3--3-3-3--2--2-2-2--2--2-2-2--2--2-2-2--3-3-3-3-----------2--2--2--2--2----2¬--3¬2¬--
-----------------------0--0-0-0--0--0-0-0-----------------------------------0---0-------

LEAD GUITAR (heavy distortion)
                                                                          ==wah effect==
----------------------------------------------------------------------------------------
--------------------------------12----------------------------------------12-12h14-14b--
--14--12-12~~~~~~14~~14--12-----12----14--12-12~~~14~~~11~~~--12-11-12-11-12-12h14-14b--
----------------------------14~~---14---------------------------------------------------
----------------------------------------------------------------------------------------
----------------------------------------------------------------------------------------

SOLO (E minor pentatonic scale)

RHYTHM GUITAR (play E5-A5-B5-A5 chords)

LEAD GUITAR (with wah effect)
[ Tab from: http://www.guitartabs.cc/tabs/m/metallica/no_leaf_clover_tab_ver_2.html ]
--------------------------------------------------------------------------------
--15b17-b17-b17r15----12-15--15p12----12----------------------------------------
-------------------14--------------14----14p12-14-14-14-14-14p12--b15r14p12-----
----------------------------------------------------------------14---------14v--
--------------------------------------------------------------------------------
--------------------------------------------------------------------------------


--------------------------------------------------------------------------------
----------15b17r15-12---12---12--------------------------12-13-15-b17r15p13p12--
-------12------------b15--b15--b15r14-12-14p12--12-----12-----------------------
--12/14---------------------------------------14--14p12-------------------------
--------------------------------------------------------------------------------
--------------------------------------------------------------------------------


----------------------------------------------------------15b17v------15p14p12--
--15p12--12---------------------------15b17---------15b17-----------------------
-------14--14p12-14-14-14-14-------12------------12-----------------------------
------------------------------12/14---------12/14-------------------------------
--------------------------------------------------------------------------------
--------------------------------------------------------------------------------


--15p14p12-15p14p12-15-15-15-17b20v----14-15-14-12h14p12------------------------
--------------------------------------------------------15-13-12----------------
----------------------------------------------------------------14-12---12------
----------------------------------------------------------------------14---14v--
--------------------------------------------------------------------------------
--------------------------------------------------------------------------------


----------------------------------------------------17b20v--
--15-17v-15-17v--15-17-17-15-17-17-15-17-17-15-17-17--------
------------------------------------------------------------
------------------------------------------------------------
------------------------------------------------------------
------------------------------------------------------------


BRIDGE

RHYTHM GUITAR (play ORQUESTA INTRO x4 and then)

LEAD GUITAR (gets in the 3rd orquesta intro)

---------------------------------------------------------------------------------------
--12----12----12----12----12----12----12----12----8---8---10---10---7---7---10---10----
--12----12----12----12----12----12----12----12------9---9----9----9---8---8----9----9--
-----14----14----14----14----14----14----14----14--------------------------------------
---------------------------------------------------------------------------------------
---------------------------------------------------------------------------------------


OUTRO

 Eb5 G#5 Bb5 G#5    Eb5 Bb5 B5  Bb5       lead guitar can play some licks in the scale
------------------|------------------    ------------------------------12-14-15-17-20--
------------------|------------------    ----------------------12-13-15----------------
------2---4---2---|------4---5---4---    -----------------12-14------------------------
--2---2---4---2---|--2---4---5---4---    ------------12-14-----------------------------
--2---0---2---0---|--2---2---3---2---    -------12-14----------------------------------
--0---------------|--0---------------    --12-15---------------------------------------
strum this chords  and then play this 4x
like chorus twice   

END

 Eb5                 F#5                    E5                                 
------------------------------------------------------------
------------------------------------------------------------
------------------------------------------------------------
-2-----2-----2-----2-5--2-----2-----2-----2-3--2-3--2-3--2--
-2-----2-----2-----2-5--2-----2-----2-----2-3--2-3--2-3--2--
-0-0-0-0-0-0-0-0-0-0-3--0-0-0-0-0-0-0-0-0-0-1--0-1--0-1--0--
 =======P.M=========    ========P.M========    


LIRICS AND ORDER:

INTRO ORQUESTA
INTRO

VERSE 1
And it feels right this time
On this crash course we're in the big time
Pay no mind to the distant thunder
Beauty fills his head with wonder, boy....

Says it feels right this time
Turn around, found new high lights
Good day to be alive Sir
Good day to be alive, he said.....

CHORUS
Then it comes to be that the soothing light at the end of your tunnel
is just a freight train coming your way
Then it comes to be that the soothing light at the end of your tunnel
is just the freight train coming your way

VERSE 2
Don't it feel right like this
All the pieces fall to his wish
Suck up for that quick reward boy
Suck up for that quick reward they said.....

CHORUS
Then it comes to be that the soothing light at the end of your tunnel
is just a freight train coming your way
Then it comes to be that the soothing light at the end of your tunnel
is just the freight train coming your way......

INTERLUDE
It's coming your way
It's coming your way.....yeah
Here comes

SOLO

BRIDGE

OUTRO
Yeah, Then it comes to be that the soothing light at the end of your tunnel
Is just a freight train coming your way.... Yeah...
Then it comes to be, Yeah...
Then it comes to be, Yeah...
Then it comes to be, Yeah...
Then it comes to be, Yeah...
Then it comes to be, Yeah...
Then it comes to be, Yeah...
Then it comes to be, Yeah...
Then it comes to be, Yeah

END
 
Made by Hugo, Chile (rockwine@hotmail.com)
Comments