Metallica - No Leaf Clover Chords & Tabs

 

No Leaf Clover Chords & Tabs

Metallica Chords & Tabs

Version: 11 Type: Tab 0 ratings
1 star 2 stars 3 stars 4 stars 5 stars
comments

No Leaf Clover Tab

   
No Leaf Clover
written by Metallica
tabbed by totalimmortal

Eb,Ab,Db,Gb,Bb,Eb


intro
eb--7---7---8----8----7---7---8----8---
Bb--8---8---10---10---7---7---10---10--
Gb----9---9----9----9---8---8----9----9
Db-------------------------------------
Ab-------------------------------------
Eb-------------------------------------

eb--7---7---8----8----7---7----------------
Bb--8---8---10---10---7---7-------10-----10
Gb----9---9----9----9---8---8-8/9----8/9---
Db-----------------------------------------
Ab-----------------------------------------
Eb-----------------------------------------

eb--7---7---8----8----7---7----------10-8---
Bb--8---8---10---10---7---7-------10------10
Gb----9---9----9----9---8---8-8/9-----------
Db------------------------------------------
Ab------------------------------------------
Eb------------------------------------------

eb--7---7---8----8----7---7-----------8---
Bb--8---8---10---10---7---7-------10----10
Gb----9---9----9----9---8---8-8/9---------
Db----------------------------------------
Ab----------------------------------------
Eb----------------------------------------




Gb-----------------------       -----------------------
Db------------2-----2---- three -4-----4---------------
Ab----2~--3~2~2-----2---- times -4-----4-------2~--3~2~
Eb--0---0-----0-0-0-0-0-0 then  -2-2-2-2-2-2-0---0-----



3)
Gb--2--4------------5--4------------2--4-----5--4-4-4-4-4-4-4-4-4-4
Db--2--4------------5--4------------2--4--5--5--4-4-4-4-4-4-4-4-4-4
Ab--0--2---2~--3~2~-3--2---2~--3~2~-0--2--5--3--2-2-2-2-2-2-2-2-2-2
Eb-------0---0-----------0---0------------3------------------------



eb--0-0-0-0-0--0--0--0--0--0---2-2-2-2-2--0--0--0--0--0
Bb--0-0-0-0-0--1--1--1--1--1---0-0-0-0-0--1--1--1--1--1
Gb--0-0-0-0-0--2--2--2--2--2---2-2-2-2-2--2--2--2--2--2
Db--2-2-2-2-2--2--2--2--2--2---1-1-1-1-1--2--2--2--2--2
Ab--2-2-2-2-2--0--0--0--0--0---2-2-2-2-2--0--0--0--0--0
Eb--0-0-0-0-0------------------------------------------



second guitar
     ^V
eb-----------------------------------------------------
Bb-----------------------------------------------------
Gb--14--12---------------------------------------------
Db----------14~~~~~~~~~~~~~~~~13-14-13~~~~~~~~~~~~~~~~~
Ab-----------------------------------------------------
Eb-----------------------------------------------------


first guitar
eb-------0-0-0-0-0--2-2-2-2-2--0-0-0-0-0--0-0-0-0--2-2-2-2---------------
Bb-------1-1-1-1-1--0-0-0-0-0--0-0-0-0-0--1-1-1-1--3-3-3-3---------------
Gb-------0-0-0-0-0--2-2-2-2-2--0-0-0-0-0--0-0-0-0--2-2-2-2--2--2--2--2--2
Db-------2-2-2-2-2--1-1-1-1-1--2-2-2-2-2--2-2-2-2--0-0-0-0--1--1--1--1--1
Ab-------3-3-3-3-3--2-2-2-2-2--2-2-2-2-2--3-3-3-3-----------2--2--2--2--2
Eb-----------------------------0-0-0-0-0---------------------------------
"It's coming your way" (3:05)
also clean played after riff 4)


2nd guitar
     ^V                 ^V
eb-----------------------------------------------------------------------
Bb--------------------------------12-------------------------------------
Gb--14--12-12~~~~~~14~~14--12-----12----14--12-12~~~14~~~11~~~12-11-12-11
Db----------------------------14~~---14----------------------------------
Ab-----------------------------------------------------------------------
Eb-----------------------------------------------------------------------


first guitar
Gb---------------------------------------------------4--------------------------------------
Db--2-2-2--2--2-2-2--2-2-2-5--2-2-2--2--2-2-2--2-2-2-4--2-2-2--2--2-2-2--2-2-2-5---2----2---
Ab--2-2-2--2--2-2-2--2-2-2-5--2-2-2--2--2-2-2--2-2-2-2--2-2-2--2--2-2-2--2-2-2-5---2----2---
Eb--0-0-0--0--0-0-0--0-0-0-3--0-0-0--0--0-0-0--0-0-0----0-0-0--0--0-0-0--0-0-0-3~--0-3~~0-3~
breakdown


second guitar
eb--7---7---7---7---7---7---7---7---7---7---7---7-7--7-7
Bb--8---8---8---8---8---8---8---8---8---8---8---7-7--7-7
Gb----9---9---9---9---9---9---9---9---9---9---9-8-8--8-8
Db------------------------------------------------------
Ab------------------------------------------------------
Eb------------------------------------------------------


[ Tab from: http://www.guitartabs.cc/tabs/m/metallica/no_leaf_clover_tab_ver_11.html ]
Gb-----2--4--2---     ----4--5--4---
Db--2--2--4--2--2     -2--4--5--4--2
Ab--2--0--2--0--2     -2--2--3--2--2
Eb--0-----------0     -0-----------0


solo

w/wah              E5
1|--7-----8---10--|-12--12--12-------12---------12----------------
2|--10b---11b-13b-|-15b-15b-15b--/12----12-15b-----15p12----------
3|----------------|--------------------------------------14p12----
4|----------------|--------------------------------------------14-
5|----------------|-----------------------------------------------
6|----------------|-----------------------------------------------
  E5
1|-------------------------------------------12---------------------
2|----------------------------------------12----12-15-12h15p12----12
3|-14b-14b-14b-14--12----12---------12-14----------------------14b--
4|--------------------14~---14~-/14---------------------------------
5|------------------------------------------------------------------
6|------------------------------------------------------------------
  E5                  F#5
1|--------------------|-------14h17p14-----------------------------
2|--------------------|-14h17----------17p14-14h17p14--------------
3|-14p12-14p12-----12-|-------------------------------16p14-16b-16b
4|-------------14-----|--------------------------------------------
5|--------------------|--------------------------------------------
6|--------------------|--------------------------------------------
  F#5      E5
1|--------|------------------------------------15br-----12-15p12----
2|--------|---------15b----------15b-----------------15-------------
3|--14----|------12-----------12-----------12-----------------------
4|-----16-|--/14----------/14----------/14--------------------------
5|--------|---------------------------------------------------------
6|--------|---------------------------------------------------------

1|----12-15p12----12-15-16b-17b-17b-17b~--12-15-12h15p12----12------
2|-15----------15----------------------------------------15----15p12
3|------------------------------------------------------------------
4|------------------------------------------------------------------
5|------------------------------------------------------------------
6|------------------------------------------------------------------
                                          F#5
1|--------------------------------------|-------14-----14-------
2|----12-15-12--------------------------|---17b----17b----17p14-
3|-14----------14-12--14br-12----12-----|-----------------------
4|----------------------------14----14\-|-----------------------
5|--------------------------------------|-----------------------
6|--------------------------------------|-----------------------

1|-----14------------14--------19br-17-----|
2|-17b----17p14--17b----17p14-----------19-| thnx.
3|-----------------------------------------|
4|-----------------------------------------|
5|-----------------------------------------|
6|-----------------------------------------|



eb--------------------------------------------------------------------
Bb--------------------------------------------------------------------
Gb---------------------------------------14b(16)r14p12----------------
Db------/14~~----------13b(14)r13~~--------------------------14~~-----
Ab--------------------------------------------------------------------
Eb--------------------------------------------------------------------



The second part is the thing he plays during the riff that comes after the 
solo.

eb---------------------------------------------------
Bb---------------------------------------------------
Gb-----12--------12--------12----------12------------
Db----------14~-------14~--------14~-------13~-------
Ab---------------------------------------------------
Eb---------------------------------------------------

*after that gets played 3 times, he plays this:

eb--------------------------------------------------------------------------
Bb--------------------------------------------------------------------------
Gb---12------12-------14-------14-------11-------11-------14-------14-------
Db-------14------14-------14-------14-------13-------13-------14-------14---
Ab--------------------------------------------------------------------------
Eb--------------------------------------------------------------------------
Comments