Metallica - My World Chords & Tabs

 

My World Chords & Tabs

Metallica Chords & Tabs

Version: 4 Type: Tab 0 ratings
1 star 2 stars 3 stars 4 stars 5 stars
comments

My World Tab

   
--------------------------------------------------------------------------------
                             My World - Metallica
--------------------------------------------------------------------------------
Tabbed by:  George Frost
Email:      george@ezaypage.fslife.co.uk

Tuning:     C-G-C-F-A-D
Tempo:      Fast Rock, 204bpm

Hi. This is guitar part 1 only for My World, by Metallica. If you want both parts
I suggest you buy the official book! Enjoy the tab.
At first glance 
Please rate this tab, because I think it's 100% correct (or as near as you will
get). Also, this is only my second tab for Ultimate Guitar.

  Intro
d|------------------------------------|----------------------------------------|
A|------------------------------------|----------------------------------------|
F|o----------------------------------o|----------------------------------------|
C|o--------------------------0-------o|-------------------------0--------------|
G|---------------------------0--------|-------------------------2--------------|
C|--0--0----0--0--0--0-------0--------|-0--0----0--0--0--0------1--------------|
    pm---------------|			pm---------------|
	     End Intro    Riff A				      End Riff A
d|----------------------|------------------------------------------------------|
A|----------------------|------------------------------------------------------|
F|----------------------|o----------------------------------------------------o|
C|----------------------|o----------------------------------------------------o|
G|----------------------|-------------------------------------0h3h5~-----------|
C|--0--0----0--0--0--0--|--0--0--0--3--0--0--5--0--0--0--0--0------------------|
    pm---------------|	      pm-|     pm-|     pm-|     pm-|
  Riff A1                              End Riff A1
d|------------------------------------------------|----------------------------|
A|------------------------------------------------|----------------------------|
F|o----------------------------------------------o|----------------------------|
C|o----------------------------------------------o|----------------------------|
G|--------------------------------------0h3h5~----|----------------------------|
C|--0--0--0--3--0--0--5--0--0--0--0--0------------|----------------------------|
       pm-|     pm-|     pm-|     pm-|
  Riff A2                             End Riff A2 Riff B
d|-----------------------------------------------|-----------------------------|
A|-----------------------------------------------|-----------------------------|
F|o---------------------------------------------o|o----------------------------|
C|o---------------------------------------------o|o----------------------------|
G|--0------3------5----------0----------0h3h5~---|-----------------------------|
C|--0------3------5----------0-------------------|--0--0--0--3--0--0--5--0--0--|
						       pm-|     pm-|     pm-|
						    |1,              End Riff B
d|-----------------------------------------------------------------------------|
A|-----------------------------------------------------------------------------|
F|----------------------------------------------------------------------------o|
C|----------------------------------------------------------------------------o|
G|-----------0h3h5~----0---------3--------5----------3----------0--------------|
C|--0--0--0------------0---------3--------5----------3----------0--------------|
       pm-|
   |2,
d|------------------------------------------|----------------------------------|
A|------------------------------------------|----------------------------------|
F|------------------------------------------|----------------------------------|
C|------------------------------------------|---Repeat-Riff-B-Six-Times-More---|
G|--(5)----3----------0---------------------|----------------------------------|
C|--(5)----3----------0---------------------|----------------------------------|
[ Tab from: http://www.guitartabs.cc/tabs/m/metallica/my_world_tab_ver_4.html ]
  Riff A3						            End Riff A3
d|-----------------------------------------------------------------------------|
A|-----------------------------------------------------------------------------|
F|o---------------------------------------------------------------------------o|
C|o---------------------------------------------------------------------------o|
G|--0-------3---------5----------------------------------------(5)-------------|
C|--0-------3---------5----------------------------------------(5)-------------|
								             x3
  Riff A4 - Half Time Feel				            End Riff A4
d|-----------------------------------------------------------------------------|
A|-----------------------------------------------------------------------------|
F|o---------------------------------------------------------------------------o|
C|o---------------------------------------------------------------------------o|
G|--F5--D5--------F5--D5--------G5----Ab5--D5------After-this-play-Riff-A-x4---|
C|-------------------------------------------------then-Riff-A2-x2-------------|
									     x7
  Riff C - End Half Time Feel					     End Riff C
d|-----------------------------------------------------------------------------|
A|-----------------------------------------------------------------------------|
F|o---------------------------------------------------------------------------o|
C|o---------------------------------------------------------------------------o|
G|-----------------------------------------------------------------------------|
C|--3p0--0--0--0--0--3p0------5---6p0---3p0--0--0--0--0--3p0-----5-----6p0-----|
         pm    pm-|			     pm    pm-|
  Riff D		       End Riff D Riff E		     End Riff E
d|---------------------------------------|-------------------------------------|
A|---------------------------------------|-------------------------------------|
F|o----------------------------5-(5)/7--o|o----------------------------5------o|
C|o----------------------------5-(5)/7--o|o----------------------------5------o|
G|-----------------------------3-(3)/5---|-----------------------------3-------|
C|--0--0--0--3--0--0--0--0--0------------|--0--0--0--3--0--0--0--0--0----------|
    pm----------------------|	    Repeat these 2 riffs in succession 14 times

d|-----------------------------------------------------------------------------|
A|-----------------------------------------------------------------------------|
F|o---------------------------------------------------------------------------o|
C|o---------------------------------------------------------------------------o|
G|-----------0-----------3p0--2p0--0/6-------------------------3p0--2p0--0/6---|
C|--0--0--0-----0--0--0--3p0--2p0--0/6----0--0--0--0--0--0--0--3p0--2p0--0/6---|
    pm----|     pm-|                      pm-------------|

d|-----------------------------------------------------------------------------|
A|-----------------------------------------------------------------------------|
F|-----------------------------------------------------------------------------|
C|-----------------------------------------------------------------------------|
G|-----------0-----------3p0--2p0--0/6--0--0--0--0--0--0--0--0--0--3--3--0--2--|
C|--0--0--0-----0--0--0--3p0--2p0--0/6--0--0--0--0--0--0--0--0--0--3--3--0--2--|
    pm----|     pm-|

d|-----------------------------------------------------------------------------|
A|-----------------------------------------------------------------------------|
F|-----------------------------------------------------------------------------|
C|-----------------------------------------------------------------------------|
G|--0--0/6------------------Repeat-riff-C-x1-then-riff-A4-x8-------------------|
C|--0--0/6---------------------------------------------------------------------|

  Riff F
d|---------------------------------------------------|-------------------------|
A|---------------------------------------------------|-------------------------|
F|o-------------------------------------------------o|-------------------------|
C|o-------------------------------------------------o|-------------------------|
G|--0--------------------------------------------0---|--0---------------0------|
C|--0--0--3--0--5--0--6--0--5--0--3--0--5--0--6--0---|--0---------------0------|
       pm    pm    pm    pm    pm    pm    pm
				           harms-------|
d|-----------------------------------------------------------------------------|
A|-----------------------------------------3--3--------------------------------|
F|------------------------------------------------3----------------------------|
C|-----------------------------------------------------------------------------|
G|--0----------------0--0------------------------------0-----------------------|
C|--0----------------0--0------------------------------0-----------------------|



| /     slide up
| \     slide down
| h     hammer-on
| p     pull-off
| ~     vibrato
| ()    harmonic
| x     mute note
| pm    palm muting
| harms multiple harmonics
| |1,   time bars
| *#    rest (# - no. of beats)
|==============================================================================|

There you go, there's the tab, in full. Please feel free to email me with any
questions about order, how to play, or anything in general, at the adddress at
the top of the page.

George,
george@ezaypage.fslife.co.uk
Comments