Metallica - My Friend Of Misery Chords & Tabs

 

My Friend Of Misery Chords & Tabs

Metallica Chords & Tabs

Version: 6 Type: Tab 0 ratings
1 star 2 stars 3 stars 4 stars 5 stars
comments

My Friend Of Misery Tab

   
Metallica 
My friend of Misery
Black album

Transcribed by Kevin Cruz

\ / Slide up or down
p   pull off
b   bend
r   release
h   hammer on
~   vibrate
 
(solo) James Hetfield

|---------------------------------------------|
|---------------------------------------------|
|-/10----12p10-12b14--12-10---9---9h12-9~~~-9-|
|---------------------------------------------|
|---------------------------------------------|
|---------------------------------------------|

|---------------------------------------------|
|---------------------------------------------|
|9h10p-9\7h-9p7\5h7p5~~~(5)/10---12p10--12b14-|
|---------------------------------------------|
|---------------------------------------------|
|---------------------------------------------|

|----------------------------------------------|
|----------------------------------------------|
|-12p10-12b14-r12-10--9h10-9~~-9h10p9\7-9-7h9p-|
|----------------------------------------------|
|----------------------------------------------|
|----------------------------------------------|

|----------------------------|
|----------------------------|
|-7\5-7--5h7p5\4-5p4\2h4-2/--|
|----------------------------|
|----------------------------|
|----------------------------|

|-13p10----10-13--13p10----10-13--13p10----10-|
|-------10--------------10--------------10----|
|---------------------------------------------|
|---------------------------------------------|
|---------------------------------------------|
|---------------------------------------------|

|-13p10----10-13p10-13p10----10-13p10-13p10----10-|
|-------10----------------10----------------10----|
|-------------------------------------------------|
|-------------------------------------------------|
|-------------------------------------------------|
|-------------------------------------------------|

|-12p8----8-12--12p8----8-12--12p8----8-|--12p8----8-10p8-------------------|
|------10------------10------------10---|-------10-------10-10-10h11p10p8-10|
|---------------------------------------------------------------------------|
|---------------------------------------------------------------------------|
|---------------------------------------------------------------------------|
|---------------------------------------------------------------------------|
[ Tab from: http://www.guitartabs.cc/tabs/m/metallica/my_friend_of_misery_tab_ver_6.html ]
|-13p10----10-13--13p10----10-13--13p10----10-|
|-------10--------------10--------------10----|
|---------------------------------------------|
|---------------------------------------------|
|---------------------------------------------|
|---------------------------------------------|

|-13p10----10-13p10-13p10----10-13p10-13--13/--|
|----------------------------------------------|
|----------------------------------------------|
|----------------------------------------------|
|----------------------------------------------|
|----------------------------------------------|

|-20p17----17-20--20p17----17-20--20p17----17---|-20/22--22b24--22b24~~~|
|-----------------------------------------------|-----------------------|
|-----------------------------------------------|-----------------------|
|-----------------------------------------------|-----------------------|
|-----------------------------------------------|-----------------------|
|-----------------------------------------------|-----------------------|

(solo) Kirk Hammet

to make this part sound like the song, you must put WAH.

|-------------------------------------------|
|-------------------------------------------|
|-16b18--------r(16)----16-14~~(14)\-----14-|
|------------------------------------/16----|
|-/////---------///-------------------------|
|-------------------------------------------|
Tremolo picking/////

|---------------------------------------------------------------------|
|--------------------------------------------------------------17b19~-|
|-16b18~--16--16b18--14----------14--|-16b18r16p14-16b18r16p14--------|
|-----------------------16-14-16--------------------------------------|
|---------------------------------------------------------------------|
|---------------------------------------------------------------------|

|--17b20---17b20---17b20---17b20--r17--14~~~----|
|--------------------------------------------17-|
|-----------------------------------------------|
|-----------------------------------------------|
|-----------------------------------------------|
|-----------------------------------------------|

|----------------------------------------------------|
|--17---------------------------------------------14-|
|-----16b18--16b18--16b18----14-------------14----14-|
|-------------------------------16~~-14--16----------|
|----------------------------------------------------|
|----------------------------------------------------|
Comments