Metallica - My Friend Of Misery Chords & Tabs

 

My Friend Of Misery Chords & Tabs

Metallica Chords & Tabs

Version: 5 Type: Tab 0 ratings
1 star 2 stars 3 stars 4 stars 5 stars
comments

My Friend Of Misery Tab

   
METALLICA
MY FRIEND OF MISERY  
Tabbed by:The_Andy88
Email:The_Andy88@Hotmail.com

Tuning: standard(EADGBe)


INTRO:    Bass only


w/bass intro/riff
 
 
 Rhy. fig. 1 w/distortion                                       (EndRhy.Fig1)
e|--------------|--------------|--------------|-------------|---------------|
B|--------------|--------------|--------------|-------------|---------------|
G|------------2-|-2------------|-(2)----------|-2-----------|-(2)-----------|
D|------------3-|-3------------|-(3)----------|-2-----------|-(2)-----------|
A|------------0-|-0------------|-(0)----------|-0-----------|-(0)-----------|
E|--------------|--------------|--------------|-------------|---------------|
  
 Rhy.fig1 x2
 

     P.M.                            P.M.    
e|---------------|--------------|--------------|---------------|
B|---------------|--------------|--------------|---------------|
G|---------------|--------------|--------------|---------------|
D|---3---3-------|--------------|--2---2-------|---------------| X 2
A|-----5---0-----|--(0)---------|----3---0-----|-(0)-----------|
E|---------------|--------------|--------------|---------------|


 w/R.fig1
 Rhy.Fig2                                             (End R.fig2)
e|---------------|--------------|--------------|---------------|
B|---------------|--------------|--------------|---------------|
G|---------------|--------------|--------------|---------------|
D|-3---3-------3-|---3----------|-2---2------2-|---2-5/7~~~~~~-| x 5
A|---5---0-------|-5---0--------|---3---0------|-3-------------|
E|---------------|--------------|--------------|---------------|
 
 The 3rd time the vocals come in


 1. verse
    
    You just stood there screaming
    fearing no one was listening to
    you They say the empty can rattles 
    most. The sound of your own voice 
    must soothe you, hearing only what 
    you wanna hear, an knowing only
    what you heard.


  BRIDGE   aucustic
e|--------------------------------------------------------------------------|
B|--------------------------------------------------------------------------|
G|--2-------2------2-------2-------2---2----2------2-------2------2---------|
D|----3-------3-------3------3-------3--------2------2-------2------2-------|
A|------5-------5-------5------5----------------3------3-------3------3-----|
E|--------------------------------------------------------------------------|
   You      You're smotherd in tragedy    and you,re out to save the world
[ Tab from: http://www.guitartabs.cc/tabs/m/metallica/my_friend_of_misery_tab_ver_5.html ]
                                                           (End BRIDGE)
e|------------------------------|-------------------------------------------|
B|------------------------------|-------------------------------------------|
G|------------------------------|-------------------------------------------|
D|--------5---------------------|-------5----5------------------------------|
A|--0--3------------5--------7--|-0--3-------5----7-----(7)-----------------|
E|------------0--3------/5------|----------0--------------------------------|



 CHORUS w/heavy distortion
e|--------------------------|---------------------------------|
B|--------------------------|---------------------------------|
G|--------------------------|-----2--2-------2---4--4---------|
D|----------------------2---|-----2--2-------2---4--4---------| x 3(1/2)
A|--4--4---0--2--3--4---2---|-----0--0-------0----------------|
E|--2--2----------------0---|--0------------------------------|
  P.M...                     P.M.

                                                              (End CHORUS)
e|-----------------------------|--------------------|-----------------------|
B|-----------------------------|--------------------|-----------------------|
G|-----2---2---3--4------------|--------------------|------------------3----|
D|-----2---2---3--4--2---------|--------------2-----|-------------2----3----|
A|-----0---0---1--2--2----3----|--3-----------2---3-|-3-----------2----0----|
E|--0----------------0----0----|--0--0--0--0--0---0-|-0--0--0--0--0-0-------|
  P.M.                          P.M.........          P.M.......



CHORUS x2

Rhy.Fig1 x2
Rhy.Fig2 w/Rhy.Fig1 x5

BRIDGE x1

CHORUS x2


Bass riff only



  INTERLUDE w/bass riff
e|-----------------------|----------------------------------|
B|-------------5---------|-----5----------------------------|
G|--------5--------------|----------7----5----7~~~~---------|
D|--7~~------------7~~---|----------------------------------| x2
A|-----------------------|----------------------------------|
E|-----------------------|----------------------------------|
                           

                               (End INTERLUDE)
e|-----------------------------------------|
B|---10br--10~~~~-----------5--------------|
G|------------------------------5~~--------|
D|-----------------------------------------|
A|-----------------------------------------|
E|-----------------------------------------|
  (The interlude sounds very syntetihc)


  This riff is played right before the solo
e|---------------------0-----------------------------------1-------------|
B|-----------------3---3b---3------------------------------0-------------|
G|--------------2--------------2------------------0h2-2------------------|
D|---------2h3-----------------------------0h2-2-------------------------|
A|-----0-------------------------------0---------------------------------|
E|-----------------------------------------------------------------------|



 I'm sorry but i hasn't figured out the solo yet, but if you know it
 E-mail me at: The_Andy@Hotmail.com

| br bend and relise 
| b  bend the string
| /  slide up
| \  slide down
| h  hammer-on
| p  pull-off
| ~  vibrato
| +  harmonic
| x  Mute note
==========================================================================
Comments