Metallica - My Friend Of Misery Chords & Tabs

 

My Friend Of Misery Chords & Tabs

Metallica Chords & Tabs

Version: 2 Type: Tab 1 rating
1 star 2 stars 3 stars 4 stars 5 stars
comments

My Friend Of Misery Tab

bass intro

then...
play this twice
e---------------------------------------------------
b---------------------------------------------------
g-2--2-------------------2--------------------------
d-3--3-------------------2--------------------------
a-0--0-------------------0--------------------------
e---------------------------------------------------

this twice
g----------------------------------------------------
d-3---3------------------2---2-----------------------
a---5---0------------------3---0---------------------
e----------------------------------------------------
   pm                     pm

this twice
g----------------------------------------------------
d-3---3------3---3-------2---2------2---2-5/7~-------
a---5---0------5---0-------3---0------3--------------
e----------------------------------------------------
   pm         pm          pm         pm
[ Tab from: http://www.guitartabs.cc/tabs/m/metallica/my_friend_of_misery_tab_ver_2.html ]
verse riff x4
g------------------------------------------------------------
d-3---3-----3---3--------5---2---2-----2---2-5/7~--7-7-------
a---5---0-----5---0----3-------3---0-----3-------------------
e------------------------------------------------------------
   pm        pm               pm        pm

then
g---------------------------------------
d-----5----------5------5---5-----------
a-0-3-------5-/7----0-3-----5-\---------
e-------0-3---------------0-------------
  pm.   ...         ...   .

chorus
g----------------2-2---2-4-4------------------2-2-3-4--------------
d-------------2--2-2---2-4-4--------------2---2-2-3-4-2----------------------------
a-4-4-0-2-3-4-2--0-0---0------4-4-0-2-3-4-2---0-0-1-2-2-------------------------------------------
e-2-2---------0---------------2-2---------0-----------0---------------

g---------------------------------------------------------------
d-------------2-------------------------------------------------
a---3-3-------2-----3-3--------go back to intro and repeat all--
e-0-0-0-0-0-0-0---0-0-0-0-0-0-----------------------------------



theres the intelude and solos still but i'll post 'em later

{SMOKE CRACK AND WORSHIP SATAN}
Comments