Metallica - Motorbreath Chords & Tabs

 

Motorbreath Chords & Tabs

Metallica Chords & Tabs

Version: 6 Type: Tab 0 ratings
1 star 2 stars 3 stars 4 stars 5 stars
comments

Motorbreath Tab

metallica motorbreath(kill em all).
Tabbed by juan camilo betancur juanca90@hotmail.com.
  
e)----------------------------------------------------
b)----------------------------------------------------
g)----------------------------------------------------
d)----------------------------------------------------
a)--7--9----------------------------------------------
e)--5--7--7-7-7-7-7--5-3-3-3-3--5-5-5-5-5--3-2-2-2-2-2
          -----------------palm mute------------------
and the part when sing is:

e)----------------------------------------------------
b)----------------------------------------------------
g)----------------------------------------------------
d)----------------------------------------------------
a)------9-9-9-9---3---5-5-5-5---7-7-7-7---5---4-4-4-4-
e)------7-7-7-7---5---3-3-3-3---5-5-5-5---3---2-2-2-2-


 
:: Ultimate Guitar Archive :: 
http://www.ultimate-guitar.com 


[ Tab from: http://www.guitartabs.cc/tabs/m/metallica/motorbreath_tab_ver_6.html ]
Comments