Metallica - Motorbreath Chords & Tabs

 

Motorbreath Chords & Tabs

Metallica Chords & Tabs

Version: 4 Type: Tab 2 ratings
1 star 2 stars 3 stars 4 stars 5 stars
comments

Motorbreath Tab

   
#----------------------------------PLEASE NOTE---------------------------------#
#This file is the author's own work and represents their interpretation of the #
#song. You may only use this file for private study, scholarship, or research. #
#------------------------------------------------------------------------------##


Title:          Motorbreath
Band:           Metallica
Album:          Kill 'Em All
Words:          James Hetfield
Music:          James Hetfield
Tempo:          180, fast rock
Transcribed By: "DaMatrix"
My Email:       robertleeuwestein@yahoo.com 
Original site:  http://members.tripod.co.uk/robertleeuwestein/
                (check for more quality tabs, and scanned tabs)
Last edit:      12-Nov-2001
Parts:          INTRO, MAIN PART, CODA WITH SOLO 1, SOLO 2 TAB EXPLANATION
Missing:        Nothing
Other tabs 	
made by me:     Metallica - Enter Sandman
                Metallica - For Whom The Bell Tolls
                Metallica - Orion
                Metallica - The Unforgiven

This a short and fast song. The first four bars of the MAIN PART are reallly good.
I think it's because the rythem is very 'strange'. The solo is fast but it doesn't 
contain any difficult techniques. Just start playing the solo very slow and tap with
your foot, make sure you are playing in the right rythem. If that works, then you 
almost can play it. With most solos the speed will be no problem. Just make sure you
have the rythem right first, the speed doesn't matter, thrust me.

If you want to add this tab on your site then please leave the tab as it is. If you are not sure
that you have the originial tab mail me. Also, if somebody is using my tab then please mail me.
You can always get the newest verion of the tab at my website.

If you see any white lines between the guitar lines, then make sure you resolution is 
1024 x 768 or greater and that you are using Notepad.

Well, let's play this song.


INTRO*****************************************************************************

 4/4
  Gtr I
  Wx3          H    Q  Q    E S S E S S E S S S S S S
|------------|------------|---------------------------|
|------------|------------|---------------------------|
|------------|------------|---------------------------|
|------------|------------|---------------------------|
|------------|------7--8--|-9-------------------------|
|------------|------5--6--|-7-7-7-7-7-7-7-7-7-7-7-7-7-|


  Gtr I
  E S S E S S E S S S S S S   E S S E S S E S S S S S S
|---------------------------|---------------------------|
|---------------------------|---------------------------|
|---------------------------|---------------------------|
|---------------------------|---------------------------|
|---------------------------|---------------------------|
|-3-3-3-3-3-3-3-3-3-3-3-3-3-|-5-5-5-5-5-5-5-5-5-5-5-5-5-|


  Gtr I
  E S S E S S E S S S S S S   E S S E S S S S S S S S S S
|---------------------------|-----------------------------|
|---------------------------|-----------------------------|
|---------------------------|-----------------------------|
|---------------------------|-----------------------------|
|---------------------------|-----------------------------|
|-2-2-2-2-2-2-2-2-2-3-3-5-5-|-7-7-7-7-7-7-7-7-7-7-7-7-7-7-|


  Gtr I
  E S S E S S S S S S S S S S   E S S E S S S S S S S S E
|-----------------------------|---------------------------|
|-----------------------------|---------------------------|
|-----------------------------|---------------------------|
|-----------------------------|---------------------------|
|-----------------------------|---------------------------|
|-3-3-3-3-3-3-3-3-3-3-3-3-3-3-|-5-5-5-5-5-5-5-5-5-5-5-5-5-|


  Gtr I
  E S S E S S S S S S S S E
|---------------------------|
|---------------------------|
|---------------------------|
|---------------------------|
|---------------------------|
|-2-2-2-2-2-2-2-2-2-2-2-2-2-|



MAIN PART*****************************************************************************


    Gtr I
                      PM-------------------------------------------------|
    E Q  E E E. S E   E E. S E E E. S E   E E. S E E E. S E   E Q E E Q  E  4x
||------------------|-------------------|-------------------|---------------||
||o-----------------|-------------------|-------------------|--------------o||
||------------------|-------------------|-------------------|---------------||
||------------------|-------------------|-------------------|---------------||
||o-9-9--7-9-9--7-7-|-5-5--4-4-5-5--4-4-|-7-7--5-5-7-7--5-5-|-4-4---4-4--7-o||
||--7-7--5-7-7--5-5-|-3-3--2-2-3-3--2-2-|-5-5--3-3-5-5--3-3-|-2-2-0-2-2--5--||


  Gtr I
  E. E. E E. E. E   E. E. E E. E. E
|-----------------|-----------------|
|-----------------|-----------------|
|-----------------|-----------------|
|-----------------|-----------------|
|-9--9--7-9--9--7-|-9--9--7-9--9--7-|
|-7--7--5-7--7--5-|-7--7--5-7--7--5-|


  Gtr I
  E Q  E E Q  E   E Q  E E Q E   E Q  E E Q  E
|---------------|--------------|---------------|
|---------------|--------------|---------------|
|---------------|--------------|---------------|
|-4-4-----------|-7-7--4-------|---------------|
|-2-2----5-5----|-5-5--2-4-4---|-5-5----2-2----|
|--------3-3----|--------2-2---|-3-3----0-0----|


  Gtr I
  S S Q  E q  Q    E Q  E E Q  E   E Q  E E Q  E   E Q  E E Q  E
|----------------|---------------|---------------|---------------|
|----------------|---------------|---------------|---------------|
|----------------|---------------|---------------|---------------|
|----------------|-4-4-----------|-7-7--4--------|---------------|
|-4-4-4--4-4-----|-2-2----5-5----|-5-5--2-4-4----|-5-5----2-2----|
|-2-2-2--2-2-----|--------3-3----|--------2-2----|-3-3----0-0----|


  Gtr I
  S S S S S S S S Q  Q
|-----------------------|
|-----------------------|
|-----------------------|
|-----------------------|
|-4-4-4-4-4-4-4-4-4-----|
|-2-2-2-2-2-2-2-2-2-----|


    Gtr I
        PM    PM    PM    PM          PM    PM    PM    PM
    S S S S S S S S S S S S E E   S S S S S S S S S S S S E E
||------------------------------|-----------------------------|
||o-----------------------------|-----------------------------|
||------------------------------|-----------------------------|
||--4p2---4p2---4p2---4p2---4-2-|-4p2---4p2---4p2---4p2---4-2-|
||o-----2-----2-----2-----2-----|-----2-----2-----2-----2-----|
||------------------------------|-----------------------------|


  Gtr I
      PM    PM    PM    PM          PM    PM    PM    PM
  S S S S S S S S S S S S E E   S S S S S S S S S S S S E E
|-----------------------------|------------------------------||
|-----------------------------|-----------------------------o||
|-----------------------------|------------------------------||
|-4p2---4p2---4p2---4p2---4-2-|-4p2---4p2---4p2---4p2---4-2--||
|-----0-----0-----0-----0-----|-----2-----2-----2-----2-----o||
|-----------------------------|------------------------------||


Play this main part again (but not 4 times but 2 times at the first four bars)
and then got CODA WITH SOLO 1


CODA WITH SOLO 1*****************************************************************************

 5/4
  Gtr I
  H    +E. Q  S +Q
|--------------------|
|--------------------|
|--------------------|
|-4----(4)-4--5-(5)--|
|-2----(2)-2--3-(3)--|
|--------------------|


 4/4
  Gtr II
   H     +Q.             S S    S S  S S  S S  S S  S S  S S  S S  S S
|----------------------------|-----------------------------------------|
|-12----(12)-------------8-9-|-12p9----9-12p9----9-12p9----9-12p9----9-|
|-11----(11)-----------------|------11--------11--------11--------11---|
|----------------------------|-----------------------------------------|
|----------------------------|-----------------------------------------|
|----------------------------|-----------------------------------------|
|
|
| Gtr I
|   PM--------|     PM             PM--------|
| E S S S S S S S S S E. S S   S S S S S S S S S S E Q
|----------------------------|-----------------------------------------|
|----------------------------|-----------------------------------------|
|----------------------------|-----------------------------------------|
|-6-------------6p4---6--6p4-|-4h6-------------6p4---------------------|
|-4-4-4-4-4-4-4-4---4-4--4---|-4---4-4-4-4-4-4-4---6-6-----------------|
|----------------------------|---------------------4-4-----------------|


  Gtr II
   S    E  T T  S    S  S S  S    S  S S  S    S  S S    S    S  S S  S S  S S  S S  S S  S E.
|-------9------------9------------9------------9------|----------------------------------------|
|-12b14---12p9-12b14---12p9-12b14---12p9-12b14---12p9-|-------9-12p9---------------------------|
|-----------------------------------------------------|-11b13--------11-9----9-11p9------------|
|-----------------------------------------------------|-------------------11--------11-9-------|
|-----------------------------------------------------|----------------------------------11-9\-|
|-----------------------------------------------------|----------------------------------------|
|
|
| Gtr I
|   PM--------|     PM                                      PM--------|
|                                                                       |--3--|
| E S S S S S S S S S E. S S                            S S S S S S S S q  q  q
|-----------------------------------------------------|----------------------------------------|
|-----------------------------------------------------|----------------------------------------|
|-----------------------------------------------------|----------------------------------------|
|-6-------------6p4---6--6p4--------------------------|-4h6------------------------------------|
|-4-4-4-4-4-4-4-4---4-4--4----------------------------|-4---4-4-4-4-4-4-6--6--6----------------|
|-----------------------------------------------------|-----------------4--4--4----------------|


  Gtr II
   E S S S  S S S  S S  S S  S S  E    S S  S S  S S  S S  S S  S E.   S     S
|-----------------------------------|------------------------------------------|
|-----------------------------------|---------------------------------------16-|
|------------------------------9-11-|-11p9----9-11p9----9-11p9----9\-/18b20----|
|-------------9-9h11-9----9-11------|------11--------11--------11--------------|
|----7-9-9S11----------11-----------|------------------------------------------|
|-/9--------------------------------|------------------------------------------|
|
|
| Gtr I
|   PM--------|     PM                    PM--------|
| E S S S S S S S S S E. S S          S S S S S S S S S S E Q
|-----------------------------------|------------------------------------------|
|-----------------------------------|------------------------------------------|
|-----------------------------------|------------------------------------------|
|-6-------------6p4---6--6p4--------|-4h6-------------6p4----------------------|
|-4-4-4-4-4-4-4-4---4-4--4----------|-4---4-4-4-4-4-4-4---6-6------------------|
|-----------------------------------|---------------------4-4------------------|


  Gtr II
   E     S  E     S  S     S  S  S  S  S  S  S  S  S    S  S  S  S  Q     H
|-------16-------16-------16-19p16-------------------|-------------------------|
|-19b21----19b21----19b21----------19-16-16-16-19p16-|----16-19p16-19b21-------|
|----------------------------------------------------|-18----------------------|
|----------------------------------------------------|-------------------------|
|----------------------------------------------------|-------------------------|
|----------------------------------------------------|-------------------------|
|
|
| Gtr I
|   PM--------|     PM
| E S S S S S S S S S E. S S                           W
|----------------------------------------------------|-------------------------|
|----------------------------------------------------|-------------------------|
|----------------------------------------------------|-------------------------|
|-6-------------6p4---6--6p4-------------------------|-------------------------|
|-4-4-4-4-4-4-4-4---4-4--4---------------------------|-------------------------|
|----------------------------------------------------|-------------------------|



Play the main part again (this time the first four bars, 4 times)
Don't play the last four bars, just goto the SOLO 2


SOLO 2*****************************************************************************

  2/4     4/4
  Gtr II
  Q  Q     S S  S S  S S  S S  S S  S S  S S  S S
|-------|-12p9------12p9------12p9------12p9------|
|-------|------12p9------12p9------12p9------12p9-|
|-------|-----------------------------------------|
|-4--5--|-----------------------------------------|
|-2--3--|-----------------------------------------|
|-------|-----------------------------------------|
|
|
|2/4     4/4
| Gtr I
|           PM--------|     PM
| W       E S S S S S S S S S E. S S
|-------|-----------------------------------------|
|-------|-----------------------------------------|
|-------|-----------------------------------------|
|-------|-6-------------6p4---6--6p4--------------|
|-------|-4-4-4-4-4-4-4-4---4-4--4----------------|
|-------|-----------------------------------------|

[ Tab from: http://www.guitartabs.cc/tabs/m/metallica/motorbreath_tab_ver_4.html ]
  Gtr II
                                      |-3--|
   S S  S S  S S  S S  S S  S S  S S  S S  S
|-12p9------12p9------12p9------12p9---------|
|------12p9------12p9------12p9------12p9h12-|
|--------------------------------------------|
|--------------------------------------------|
|--------------------------------------------|
|--------------------------------------------|
|
|
| Gtr I
|     PM--------|
| S S S S S S S S S S E Q
|--------------------------------------------|
|--------------------------------------------|
|--------------------------------------------|
|-4h6-------------6p4------------------------|
|-4---4-4-4-4-4-4-4---6-6--------------------|
|---------------------4-4--------------------|


  Gtr II
             |-3-|  |-3-| |-3-| |-3-| |-3-| |-3-|
   S S  S S  S S S  S S S S S S S S S S S S S S S
|-12p9-12p9-11-8-8-10-7-7-9-6-6-8-5-5-7-4-4-4-4-4-|
|-------------------------------------------------|
|-------------------------------------------------|
|-------------------------------------------------|
|-------------------------------------------------|
|-------------------------------------------------|
|
|
| Gtr I
|   PM--------|     PM
| E S S S S S S S S S E. S S
|-------------------------------------------------|
|-------------------------------------------------|
|-------------------------------------------------|
|-6-------------6p4---6--6p4----------------------|
|-4-4-4-4-4-4-4-4---4-4--4------------------------|
|-------------------------------------------------|


  Gtr II
  E S S S S S S S S S S +E     S S   S E S E S E S E E S S
|-4---4-7p4------------------------|----------------------------|
|---7-------7-4-7-4----------------|---4---4---4---6-4----------|
|-------------------6-4-(4)b5----4-|---4---4---4---6-4---4------|
|-----------------------------/6---|-6---6---6---6-----6--------|
|----------------------------------|----------------------------|
|----------------------------------|----------------------------|
|
|
| Gtr I
|     PM--------|                       PM--------|     PM
|                 |-3-|
| S S S S S S S S q q q              E S S S S S S S S S E. S S
|----------------------------------|----------------------------|
|----------------------------------|----------------------------|
|----------------------------------|----------------------------|
|-4h6------------------------------|-6-------------6p4---6--6p4-|
|-4---4-4-4-4-4-4-6-6-6------------|-4-4-4-4-4-4-4-4---4-4--4---|
|-----------------4-4-4------------|----------------------------|


  Gtr II
            |-3-|
  S   S S S S S S S S S S S S E E    E S S E S S S S S S S S E
|---------------------------------|----------------------------|
|-----4-7p4-----------------------|----------------------------|
|-6b8-------4h6p4---4-6-4---------|------------------------4-6-|
|-----------------6-------6-4-----|----------4-4-6p4---4-6-----|
|-----------------------------6-4-|----2-4S6---------6---------|
|---------------------------------|-/4-------------------------|
|
|
| Gtr I
|     PM--------|                     PM--------|     PM
| S S S S S S S S S S E Q           E S S S S S S S S S E. S S
|---------------------------------|----------------------------|
|---------------------------------|----------------------------|
|---------------------------------|----------------------------|
|-4h6-------------6p4-------------|-6-------------6p4---6--6p4-|
|-4---4-4-4-4-4-4-4---6-6---------|-4-4-4-4-4-4-4-4---4-4--4---|
|---------------------4-4---------|----------------------------|


  Gtr II
                                                                   ~~~~~
  S   S S S S S S S S S E   E  E    S    S S  E.      S E S  E     Q
|--------------------------------|-------9-9--------------9--------------|
|--------------------------------|-----------12b14----9-9---12b14-12b14--|
|-6b8---4-6p4---4-6p4---4\-/9-11-|-11b13---------------------------------|
|-----6-------6-------6----------|---------------------------------------|
|--------------------------------|---------------------------------------|
|--------------------------------|---------------------------------------|
|
|
| Gtr I
|     PM--------|                    PM--------|     PM
|                 |-3-|
| S S S S S S S S q q q            E S S S S S S S S S E. S S
|--------------------------------|---------------------------------------|
|--------------------------------|---------------------------------------|
|--------------------------------|---------------------------------------|
|-4h6----------------------------|-6-------------6p4---6--6p4------------|
|-4---4-4-4-4-4-4-6-6-6----------|-4-4-4-4-4-4-4-4---4-4--4--------------|
|-----------------4-4-4----------|---------------------------------------|


  Gtr II
                                      ~~~~~                      |-3--|
   S    S S  Q     T T  S    S  E     E     E       S S S S  S S S  S S  S S  S S  S S  S S
|---------9------------------9-------------------|---------------9h12p9---------------------|
|-------9---12b14--9-9---------12b14-12b13-12b14-|-12p9-9-9-12p9--------12p9----9-12p9------|
|-11b13----------------11b13---------------------|---------------------------12--------11-9-|
|------------------------------------------------|------------------------------------------|
|------------------------------------------------|------------------------------------------|
|------------------------------------------------|------------------------------------------|
|
|
| Gtr I
|     PM--------|                                    PM--------|     PM
| S S S S S S S S S S E Q                          E S S S S S S S S S E. S S
|------------------------------------------------|------------------------------------------|
|------------------------------------------------|------------------------------------------|
|------------------------------------------------|------------------------------------------|
|-4h6-------------6p4----------------------------|-6-------------6p4---6--6p4---------------|
|-4---4-4-4-4-4-4-4---6-6------------------------|-4-4-4-4-4-4-4-4---4-4--4-----------------|
|---------------------4-4------------------------|------------------------------------------|


  Gtr II
  S S  S S  S S S S  S S  S E.    S  S    E     S  E     S  S     S  S  S  S  S  S  S  S  S
|-----------------------------------16-|-16----16-16----16-16----16-19p16----16-19p16-21p19-|
|--------------------------------19----|-19b21----19b21----19b21----------19----------------|
|-9-9-11p9-----------------------------|----------------------------------------------------|
|----------11-9-9-9-11-9---------------|----------------------------------------------------|
|------------------------11-9b10-------|----------------------------------------------------|
|--------------------------------------|----------------------------------------------------|
|
|
| Gtr I
|     PM--------|                          PM--------|     PM
|                 |-3-|
| S S S S S S S S q q q                  E S S S S S S S S S E. S S
|--------------------------------------|----------------------------------------------------|
|--------------------------------------|----------------------------------------------------|
|--------------------------------------|----------------------------------------------------|
|-4h6----------------------------------|-6-------------6p4---6--6p4-------------------------|
|-4---4-4-4-4-4-4-6-6-6----------------|-4-4-4-4-4-4-4-4---4-4--4---------------------------|
|-----------------4-4-4----------------|----------------------------------------------------|


  Gtr II
   S  S  S  S  S  S  S  S  S  S  S  S  S  S  S  S    S     S  S  S  T  T  S  S  S  S     S  S  S  S  S  S  S
|-19p16----16-19p16-21p16-19p16----16-19p16-------|----------------16h19p16----------------------19p16-------|
|-------19----------------------19----------19-16-|-------16-19p16----------19-16-------16-19p16-------19p16-|
|-------------------------------------------------|-16b18-------------------------16b18----------------------|
|-------------------------------------------------|----------------------------------------------------------|
|-------------------------------------------------|----------------------------------------------------------|
|-------------------------------------------------|----------------------------------------------------------|
|
|
| Gtr I
|     PM--------|                                     PM--------|     PM
| S S S S S S S S S S E Q                           E S S S S S S S S S E. S S
|-------------------------------------------------|----------------------------------------------------------|
|-------------------------------------------------|----------------------------------------------------------|
|-------------------------------------------------|----------------------------------------------------------|
|-4h6-------------6p4-----------------------------|-6-------------6p4---6--6p4-------------------------------|
|-4---4-4-4-4-4-4-4---6-6-------------------------|-4-4-4-4-4-4-4-4---4-4--4---------------------------------|
|---------------------4-4-------------------------|----------------------------------------------------------|


  Gtr II
   S     S  S  S  S  S  S  S  E.    S     +Q      H       H
|----------------19p16----16-19b21-19b22-(19)-|-19b21----------------------|
|-------16-19p16-------19---------------------|----------------------------|
|-16b18---------------------------------------|----------------------------|
|---------------------------------------------|----------------------------|
|---------------------------------------------|----------------------------|
|---------------------------------------------|----------------------------|
|
|
| Gtr I
|     PM--------|                                 PM--------|     PM
|                 |-3-|
| S S S S S S S S q q q                         E S S S S S S S S S E. S S
|---------------------------------------------|----------------------------|
|---------------------------------------------|----------------------------|
|---------------------------------------------|----------------------------|
|-4h6-----------------------------------------|-6-------------6p4---6--6p4-|
|-4---4-4-4-4-4-4-6-6-6-----------------------|-4-4-4-4-4-4-4-4---4-4--4---|
|-----------------4-4-4-----------------------|----------------------------|


  Gtr I
      PM--------|              PM--------|     PM
  S S S S S S S S S S E Q    E S S S S S S S S S E. S S
|--------------------------|----------------------------|
|--------------------------|----------------------------|
|--------------------------|----------------------------|
|-4h6-------------6p4------|-6-------------6p4---6--6p4-|
|-4---4-4-4-4-4-4-4---6-6--|-4-4-4-4-4-4-4-4---4-4--4---|
|---------------------4-4--|----------------------------|


  Gtr I
      PM--------|           PM--------|     PM
                  |-3-|
  S S S S S S S S q q q   E S S S S S S S S S E. S S
|-----------------------|----------------------------|
|-----------------------|----------------------------|
|-----------------------|----------------------------|
|-4h6-------------------|-6-------------6p4---6--6p4-|
|-4---4-4-4-4-4-4-6-6-6-|-4-4-4-4-4-4-4-4---4-4--4---|
|-----------------4-4-4-|----------------------------|


  Gtr I
      PM--------|              PM--------|     PM
  S S S S S S S S S S E Q    E S S S S S S S S S E. S S
|--------------------------|----------------------------|
|--------------------------|----------------------------|
|--------------------------|----------------------------|
|-4h6-------------6p4------|-6-------------6p4---6--6p4-|
|-4---4-4-4-4-4-4-4---6-6--|-4-4-4-4-4-4-4-4---4-4--4---|
|---------------------4-4--|----------------------------|


  Gtr I
      PM--------|
                  |-3-|   |--3--|  |--3--|
  S S S S S S S S q q q   q  q  q  q  q  q   q  Q  H
|-----------------------|------------------|------------|
|-----------------------|------------------|------------|
|-----------------------|------------------|------------|
|-4h6-------------------|-4--4--4----------|------------|
|-4---4-4-4-4-4-4-6-6-6-|-2--2--2--4--4--4-|-5----------|
|-----------------4-4-4-|----------2--2--2-|-3----------|


TAB EXPLANATION*****************************************************************************

Duration Legend
---------------
W - whole; 
H - half; 
Q - quarter; 
E - 8th; 
S - 16th; 
T - 32nd; 
X - 64th; 
a - acciaccatura
+ - note tied to previous; 
. - note dotted; 
.. - note double dotted
Uncapitalized letters represent notes that are staccato (1/2 duration)
Irregular groupings are notated above the duration line
Duration letters will always appear directly above the note/fret number it represents the
duration for.  Duration letters with no fret number below them represent rests.  Multi-
bar rests are notated in the form Wxn, where n is the number of bars to rest for.  Low
melody durations appear below the staff

Tablature Legend
----------------
 h   - hammer-on
 p   - pull-off
 b   - bend
 pb  - pre-bend
 r   - bend release (if no number after the r, then release immediately)
 /\  - slide into or out of (from/to "nowhere")
 s   - legato slide
 S   - shift slide
  - natural harmonic
[n]  - artificial harmonic
n(n) - tapped harmonic
 ~   - vibrato
 tr  - trill
 T   - tap
 TP  - trem. picking
 PM  - palm muting
\n/  - tremolo bar dip; n = amount to dip
 \n  - tremolo bar down
 n/  - tremolo bar up
/n\  - tremolo bar inverted dip
 =   - hold bend; also acts as connecting device for hammers/pulls
   - volume swell (louder/softer)
 x   - on rhythm slash represents muted slash
 o   - on rhythm slash represents single note slash

Misc Legend
-----------
 |  - bar
||  - double bar
||o - repeat start
o|| - repeat end
*|  - double bar (ending)
 :  - bar (freetime)
 $  - Segno
 &  - Coda
Tempo markers -  = BPM(8/16=s8/s16), where s8 = swing 8ths, s16 = swing 16ths


***************************************************************************************
* Generated using Power Tab Editor by Brad Larsen - http://powertab.guitarnetwork.org *
***************************************************************************************
Comments