Metallica - Minus Human Chords & Tabs

 

Minus Human Chords & Tabs

Metallica Chords & Tabs

Version: 4 Type: Tab 0 ratings
1 star 2 stars 3 stars 4 stars 5 stars
comments

Minus Human Tab

-------------------------------------------------------------------------------
			    Minus Human - MetallicA
-------------------------------------------------------------------------------

By: David Hui 

Drop D and half a step

INTRO

eb|---------------------------------------------------------------------------|
Bb|---------------------------------------------------------------------------|
Gb|---------------------------------------------------------------------------|
Db|--0-0-0-7--0-6--3-0-3----0-0-7--6-0-2-3-3----------------------------------|
Ab|--0-0-0-7--0-6--3-0-3----0-0-7--6-0-2-3-3----------X4----------------------| 
Db|--0-0-0-7--0-6--3-0-3----0-0-7--6-0-2-3-3----------------------------------|

eb|---------------------------------------------------------------------------|
Bb|---------------------------------------------------------------------------|
Gb|---------------------------------------------------------------------------|
Db|--0-0-0-0-6-7-6-5----0-0-0-0-5-7-7----0-0-0-0-6-7-6-5-3-5-3-2--------------|
Ab|--0-0-0-0-6-7-6-5----0-0-0-0-5-7-7----0-0-0-0-6-7-6-5-3-5-3-2---X2---------|
Db|--0-0-0-0-6-7-6-5----0-0-0-0-5-7-7----0-0-0-0-6-7-6-5-3-5-3-2--------------|

VERSE

eb|---------------------------------------------------------------------------|
Bb|---------------------------------------------------------------------------|
Gb|---------------------------------------------------------------------------|
Db|--0---3---5---0---6-7-6-5---0---3---5---7----------------------------------|
Ab|--0---3---5---0---6-7-6-5---0---3---5---7----------------------------------|
Db|--0---3---5---0---6-7-6-5---0---3---5---7----------------------------------|
 V1  Don't you leave...        Tell me does...
 V2  Touch me so...            Barely breathing...
[ Tab from: http://www.guitartabs.cc/tabs/m/metallica/minus_human_tab_ver_4.html ]
eb|---------------------------------------------------------------------------|
Bb|---------------------------------------------------------------------------|
Gb|---------------------------------------------------------------------------|
Db|--0-0-0-0-6-7-6-5----0-0-0-0-5-7-7----0-0-0-0-6-7-6-5-3-5-3-2--------------|
Ab|--0-0-0-0-6-7-6-5----0-0-0-0-5-7-7----0-0-0-0-6-7-6-5-3-5-3-2--------------|
Db|--0-0-0-0-6-7-6-5----0-0-0-0-5-7-7----0-0-0-0-6-7-6-5-3-5-3-2--------------|
                                Down my...                 You've got to...
eb|---------------------------------------------------------------------------|
Bb|---------------------------------------------------------------------------|
Gb|---------------------------------------------------------------------------|
Db|--0-0-0-7--0-6--3-0-3----0-0-7--6-0-2-3-3----------------------------------|
Ab|--0-0-0-7--0-6--3-0-3----0-0-7--6-0-2-3-3----------X2----------------------| 
Db|--0-0-0-7--0-6--3-0-3----0-0-7--6-0-2-3-3----------------------------------|
                                     Comin' up for...

eb|---------------------------------------------------------------------------|
Bb|---------------------------------------------------------------------------|
Gb|---------------------------------------------------------------------------|
Db|--0-0-0-0-6-7-6-5----0-0-0-0-5-7-7----0-0-0-0-6-7-6-5-3-5-3-2--------------|
Ab|--0-0-0-0-6-7-6-5----0-0-0-0-5-7-7----0-0-0-0-6-7-6-5-3-5-3-2--------------|
Db|--0-0-0-0-6-7-6-5----0-0-0-0-5-7-7----0-0-0-0-6-7-6-5-3-5-3-2--------------|

Back to verse

After 2nd verse

SOLO

I didn't bother tabbing the solo it's easy to figure out and only about 8 bars long


OUTRO

eb|---------------------------------------------------------------------------|
Bb|---------------------------------------------------------------------------|
Gb|---------------------------------------------------------------------------|
Db|--0-0-0-7--0-6--3-0-3----0-0-7--6-0-2-3-3----------------------------------|
Ab|--0-0-0-7--0-6--3-0-3----0-0-7--6-0-2-3-3----------------------------------| 
Db|--0-0-0-7--0-6--3-0-3----0-0-7--6-0-2-3-3----------------------------------|

eb|---------------------------------------------------------------------------|
Bb|---------------------------------------------------------------------------|
Gb|---------------------------------------------------------------------------|
Db|--0-0-0-7--0-6HOLD------0-0-7--6-0-2-3-3-----------------------------------|
Ab|--0-0-0-7--0-6HOLD------0-0-7--6-0-2-3-3-----------------------------------| 
Db|--0-0-0-7--0-6HOLD------0-0-7--6-0-2-3-3-----------------------------------|
             ...breathe...


===============================================================================
Comments