Metallica - Minus Human Chords & Tabs

 

Minus Human Chords & Tabs

Metallica Chords & Tabs

Version: 3 Type: Tab 0 ratings
1 star 2 stars 3 stars 4 stars 5 stars
comments

Minus Human Tab

#----------------------------------PLEASE NOTE--------------------------------#
#This file is the author's own work and represents their interpretation of the#
#song. You may only use this file for private study, scholarship, or research.#
#-----------------------------------------------------------------------------#
#-- File created with Instab - http://www.pconline.com/~smcarey/instab.html --#
#-----------------------------------------------------------------------------#

Author/Artist: Metallica
Title: Minus Human 
Album: S&M
Transcribed by: Enigma
Email: megawalt3000@hotmail.com

This is my first tab, hope you like it. This thing is 100 % correct, exept maybe
the part when James sings
first tune your guitar 1/2 step down,
then tune your low E string 1 whole step down (sorta like drop D)
I haven't included the solo because it's some freaky shit that only Kirk kan do.

This is the very cool intro:
------------------------------------------------------------------------------
------------------------------------------------------------------------------
------------------------------------------------------------------------------
--0-0-0--7--0--6--3-0-3--0-0-0--7--0-0-2-3--3---------------------------------
--0-0-0--7--0--6--3-0-3--0-0-0--7--0-0-2-3--3---------x4----------------------
--0-0-0--7--0--6--3-0-3--0-0-0--7--0-0-2-3--3---------------------------------
                                  pm.....                                     

------------------------------------------------------------------------------
------------------------------------------------------------------------------
------------------------------------------------------------------------------
--0--0--0--0--5-7-6-5-0--0--0--0--5-7-7-7--0--0--0--0--5-7-5-3-3-5-3-1--------
--0--0--0--0--5-7-6-5-0--0--0--0--5-7-7-7--0--0--0--0--5-7-5-3-3-5-3-1--------
--0--0--0--0--5-7-6-5-0--0--0--0--5-7-7-7--0--0--0--0--5-7-5-3-3-5-3-1--------
  do this twice, but the second time, let the 2nd guitarist do this           
[ Tab from: http://www.guitartabs.cc/tabs/m/metallica/minus_human_tab_ver_3.html ]
------------------------------------------------------------------------------
------------------------------------------------------------------------------
--7--7--7--7--12-14-13-12-7--7--7--7--12-14-14-14-7--7--7--7--12-14-12-10-10--
--7--7--7--7--12-14-13-12-7--7--7--7--12-14-14-14-7--7--7--7--12-14-12-10-10--
--5--5--5--5--10-12-11-10-5--5--5--5--10-12-12-12-5--5--5--5--10-12-10-8--8---
------------------------------------------------------------------------------
          "don't you leave me father time, take me with you"                  

---------|--------------------------------------------------------------------
---------|--------------------------------------------------------------------
---------|--------------------------------------------------------------------
-12-10-8-|-0-----------------3-------------2------------0--0--0--0--5-7-6-5---
-12-10-8-|-0-----------------3-------------2------------0--0--0--0--5-7-6-5---
-10-8--6-|-0-----------------3-------------2------------0--0--0--0--5-7-6-5---
    "Tell me does your sun still shine, squeeze the world and drip it down    

------------------------------------------------------------------------------
------------------------------------------------------------------------------
------------------------------------------------------------------------------
------0----------------3----------------2-----------------------------1-----1-
------0----------------3----------------2-----------------------------1-----1-
------0----------------3----------------2-----------------------------1-----1-
 


my throat oh yeah"                               pm.....                     


------------------------------------------------------------------------------
------------------------------------------------------------------------------
------------------------------------------------------------------------------
--1--1--1---------0--0--0--0--5-7-6-5-0--0--0--0--5-7-7-7-0--0--0--0--5-7-5-3-
--1--1--1---------0--0--0--0--5-7-6-5-0--0--0--0--5-7-7-7-0--0--0--0--5-7-5-3-
--1--1--1---------0--0--0--0--5-7-6-5-0--0--0--0--5-7-7-7-0--0--0--0--5-7-5-3-
        "you got to breath it down breath. comin up for air."                 

-------|----------------------|-----------------------------------------------
-------|----------------------|-----------------------------------------------
-------|----------------------|-----------------------------------------------
-5-3-1-|-0-0-0--7--0-6--3-0-3-|----0-0-0--7--0-0-2-3--3-----------------------
-5-3-1-|-0-0-0--7--0-6--3-0-3-|----0-0-0--7--0-0-2-3--3-----------------------
-5-3-1-|-0-0-0--7--0-6--3-0-3-|----0-0-0--7--0-0-2-3--3-----------------------
     The second singing part is exactly the same, so enjoy this cool song.    


Comments