Metallica - Metallica Medley Live At Mtv Chords & Tabs

 

Metallica Medley Live At Mtv Chords & Tabs

Metallica Chords & Tabs

Version: 1 Type: Tab 0 ratings
1 star 2 stars 3 stars 4 stars 5 stars
comments

Metallica Medley Live At Mtv Tab

-MetallicA Medley-

|-----------------------------|-------------------------------|
|-----------------------------|-------------------------------|
|-----------------5--7-7---0--|-------------------------------|
|--5--------------5--7-7---0--|--5--------------7p5---5-------|
|--0--0-0-0-0-0-0-------------|--0--0-0-0-0-0-0-----7----6-7--|
|-----------------------------|-------------------------------|

|------------------------------|----------------------------|
|------------------------------|----------------------------|
|-----------------5--7-7--0-0--|--5-------------------7b----|
|--5--------------5--7-7--0-0--|--5-------------------------|
|--0--0-0-0-0-0-0--------------|-----0-0-0-0-0-0-6h7--------|
|------------------------------|----------------------------| 3x

E|--------------------------------------------------------|
B|--------------------------------------------------------|
G|----7---7-------------------7---7-------5---4-----------|
D|----7---7-------5---5-------7---7-------5---4---5-------|
A|----5---5-------5---5-------5---5-------3---2---5-------|
E|----------------3---3---------------------------3-------|

Then Part 1 & 2 Twice

Play Once
E|--------------------------------------------------|
B|--------------------------------------------------|
G|--------------------------------------------------|
D|-----2---2--------2---2--------2--2------5--------|
A|-----0---0--------0---0--------0--0------3----5---|
E|---------------3------------3-----------------3---|

-----------------|-----------------|-------------------------------------------|
-----------------|-----------------|-------------------------------------------|
-----------------|-----------------|-------------------------------------------|
-----------------|-----------------|-------------------------------------------|
-2-------------/7|--------------/7-|-------------------------------------------|
-0-0-0-0-0-0-0---|0-0-0-0-0-0-0----|-------------------------------------------|
   pm---------|   pm-----------------------------------------------------------|

-------------------|-------------------|---------------------------------------|
-------------------|-------------------|---------------------------------------|
-------------------|-------------------|---------------------------------------|
-------------------|-------------------|---------------------------------------|
-----/7----------3-|-----/7----------3-|---------------------------------------|
-0-0----6--0-0-0-1-|-0-0----6--0-0-0-1-|---------------------------------------|
 pm-|      pm---|    pm-|      pm----------------------------------------------|

-------------------|-------------------|--------------------------------------|
-------------------|-------------------|--------------------------------------|
-------------------|-------------------|--------------------------------------|
-------------------|-------------------|--------------------------------------|
-----/7----------3-|-----/7----------3-|--------------------------------------|
-0-0----6--5-0-0-1-|-0-0----6--5-0-0-1-|--------------------------------------|
 pm-|        pm-|    pm-|        pm-|

-------------------|-------------------|----------------------|---------------|
-------------------|-------------------|----------------------|---------------|
-------------------|-------------------|----------------------|---------------|
-----------------2-|-----------------2-|-2------------------2-|-2-------------|
-----/7----------2-|-/7--------------2-|-2--/7--------------2-|-2--/7---------|
-0-0----6--5-0-0-0-|-----6--5--------0-|-0------6--5--------0-|-0------6--5---|

-----------------|-------------------|----------------------------------------|
-----------------|-------------------|----------------------------------------|
-----------------|-------------------|----------------------------------------|
-----------------|-------------------|----------------------------------------|
-2-------------3-|-2---------------3-|----------------------------------------|
-0-0-0-0-0-0-0-1-|-0-0-0-0-0-0-0-0-1-|----------------------------------------|
[ Tab from: http://www.guitartabs.cc/tabs/m/metallica/metallica_medley_live_at_mtv_tab.html ]
---------------------|------------------|---------------|---------------------|
---------------------|------------------|---------------|---------------------|
-------2-------------|----2-------------|----2----------|---------------------|
----4-----------4----|-4-----------4----|-4-----------4-|---------------------|
----------3--2-------|-------3--2-------|-------3--2----|---------------------|
-2-----------------2-|----------------2-|---------------|---------------------|

-------------------|-----------------------------------------------------------|
-------------------|-----------------------------------------------------------|
-------------------|-----------------------------------------------------------|
-----5--4-----5--4-|---5--4----------------------------------------------------|
--4--3--2--4--3--2-|4--3--2--2-------------------------------------------------|
-\2--------2-------|2--------0-------------------------------------------------|

|------------------------------------------|
B|-----------------------------------------|
G|-------------------3---------------------|
D|-2--2--2-3-2--2--2---2-5--5-5-5---4-4----|
A|-----------------------5--5-5-5---4-4----|
E|-----------------------3--3-3-3-0-2-2----| 6x

E||---------------------------------------------------|
B||---------------------------------------------------|
G||*--------------------------------------------------|
D||*-------------------------3------------------------|
A||--2---2---2---2---2---2---1-----------2---1--------|
E||--0---0---0---0---0---0-------2---3-----------3----| 8x

E|----------------------------------|----------------------------------|
B|----------------------------------|----------------------------------|
G|-9--------------------------------|-7---------------5----------------|
D|-9-----------------------7---7----|-7-------5---5---5-------5---5----|
A|-7-----------------------7---7----|-5-------5---5---3-------5---5----|
E|-------------------------5---5----|---------3---3-----------3---3----|

E|----------------------------------|----------------------------------|
B|----------------------------------|----------------------------------|
G|----------------------------------|----------------------------------|
D|-4--------------------------------|-5-5-5-----------5-5-5------------|
A|-4--------------------------------|-5-5-5-----------5-5-5------------|
E|-2--------------------------------|-3-3-3-----------3-3-3------------|

E|----------------------------------|----------------------------------|
B|----------------------------------|----------------------------------|
G|----------------------------------|-7---------------5----5-----------|
D|-2-----------------------7---7----|-7-------5---5---5----5----5------|
A|-2-----------------------7---7----|-5-------5---5---3----3----5------|
E|-0-----------------------5---5----|---------3---3-------------3------|

E|----------------------------------|----------------------------------|
B|----------------------------------|----------------------------------|
G|----------------------------------|----------------------------------|
D|-4--------------------------------|-5---5-5-5-------4---4------------|
A|-4--------------------------------|-5---5-5-5-------4---4------------|
E|-2--------------------------------|-3---3-3-3---0---2---2------------|

e|--------------------------------------||
B|--------------------------------------||
G|-9---------10-7--9---------12--10-----||
D|-9---------10-7--9---------12--10-----||
A|-7---------8--5--7---------10--8------||
E|---0-0-0-0---------0-0-0-0------------|| 8x
     p.m....         p.m....
                                        X8
e|---------------------------------------||
B|---------------------------------------||
G|---------------------------------------||
D|-----2-----2---2-----2-----------------||
A|-----2-----2---2-----2---2-3-2h3p2p0---||
E|-0-0---0-0---0---0-0---0---------------|| 2x

e|-----------------------------------------||
B|-----------------------------------------||
G|-9-------5--7--9/10--9-------5--7--10/12-||
D|-9-------5--7--9/10--9-------5--7--10/12-||
A|-7-------3--5--7/8---7-------3--5--8-/10-||
E|---0-0-0---------------0-0-0-------------||

(Battery)
verse 2x
Chorus 1x
Verse 2x
Chorus 1x
Verse 1x
Chorus 1x
Outro7x

                                         Manuel labbé
Comments