Metallica - Metal Militia Chords & Tabs

 

Metal Militia Chords & Tabs

Metallica Chords & Tabs

Version: 2 Type: Tab 0 ratings
1 star 2 stars 3 stars 4 stars 5 stars
comments

Metal Militia Tab

Metal Militia
Metallica
Kill 'em All




  Intro
||-----------------------------------------------------------------------------
||-----------------------------------------------------------------------------
||-----------------------------------------------------------------------------
||-----------------------------------------------------------------------------
||-3/5~~~-----8\7---------------------------------------------------5--7-------
||-1/3~~~-----6\5---0--0--0--0--0--0--0--0--0--0--0--0--0--0--0--0--3--5-------


-------------------------------------------------------------------------------
-------------------------------------------------------------------------------
-------------------------------------------------------------------------------
-------------------------------------------------------------------------------
------------------------------------------------8--7---------------------------
0--0--0--0--0--0--0--0--0--0--0--0--0--0--0--0--6--5-----0--0--0--0--0--0------




[ Tab from: http://www.guitartabs.cc/tabs/m/metallica/metal_militia_tab_ver_2.html ]
------------------------------------------------------------------------||
------------------------------------------------------------------------||
------------------------------------------------------------------------||
------------------------------------------------------------------------||
------------------------------5--7-----------------------------8--7--5--||
0--0--0--0--0--0--0--0--0--0--3--5-----0--0--0--0--0--0--0--0--6--5--3--||



Before Main Riff
||----------------------------------------||
||----------------------------------------||
||----------------------------------------||
||----------------------------------------||
||-8--7--5-----8--7--5-----8--7--5-----7--||
||-6--5--3-----6--5--3-----6--5--3-----5--||



  Repeat a few times.              Not sure about this part.
||-------------------------------||------------------------||
||-------------------------------||------------------------||
||*-----------------------------*||---3-----2--------------||
||*-----7-----5-----2-----1--0--*||---1--5--0-----x--x--2--||
||---0-----0-----0-----0---------||------3--------x--x--0--||
||-------------------------------||------------------------||
Comments