Metallica - Master Of Puppets Chords & Tabs

 

Master Of Puppets Chords & Tabs

Metallica Chords & Tabs

Version: 9 Type: Tab 3 ratings
1 star 2 stars 3 stars 4 stars 5 stars
comments

Master Of Puppets Tab

   
"Master of Puppets"

b=Bend
h=Hammer on
p=Pull off
/=Slide
~=Vibrato
(~)= Repeted(2) Tremelo bend with wammy bar
{~}=Press on the wammy bar once


|----------|----------------------|----------------------|----------------------|
|----------|----------------------|----------------------|----------------------|
|----------|----------------------|----------------------|----------------------|
|-9---7-6-5|-----------------7-6-5|----------------------|-----------------7-6-5|
|-7---5-4-3|-----7-----6-----5-4-3|----------------------|-----7-----6-----5-4-3|
|-0--------|-0-0---0-0---0-0------|-0-0-7-0-0-6-0-0-5-4-3|-0-0---0-0---0-0------|


|----------------------|----------------------|----------------------|
|----------------------|----------------------|----------------------|
|----------------------|----------------------|----------------------|
|----------------------|-----------------7-6-5|----------------------|
|----------------------|-----7-----6-----5-4-3|----------------------|
|-0-0-7-0-0-6-0-0-5-4-3|-0-0---0-0---0-0------|-0-0-7-0-0-6-0-0-5-4-3|


|------------------------------------------------| (3 Times)
|------------------------------------------------|
|------------------------------------------------|
|------------------------------------------------|
|-----2---3--4--5--6/4-----1--1---5/4---5/4---5/4|
|-0-0---0--0--0--0-----0-0--0---0-3/2-0-3/2-0-3/2|


|----------------------------------------------------------------| 
|----------------------------------------------------------------|
|----------------------------------------------------------------|
|----------------------------------------------------------------|
|-----2---3--4--5--6-------1--1---5/4---5/4---5/4-5/4---5/4---5/4|
|-0-0---0--0--0--0-----0-0--0---0-3/2-0-3/2-0-3/2-3/2-0-3/2-0-3/2|


|------------------------------|--------------------------|(8 Times)
|------------------------------|--------------------------|
|------------------------------|--------------------------|
|------------------------------|--------------------------|
|-------------------5/8-8/7-5/7|-------------------5/7-5/7|
|-0-0-0-0-0-0-0-0-0-3/6-6/5-3/5|-0-0-0-0-0-0-0-0-0-3/5-3/5|


|------------------|-----------------------|
|------------------|-----------------------|
|------------------|-----------------------|
|-9-----7-9-----9--|--------------------8--|
|-7-----5-7-7-9--10|---------10-9-------6-9|
|---0-0------------|---7-7-7-8 -7-8-8-8---7|


|------------|
|------------|
|------------|
|-9-7-9-5-7-9|
|-7-5-7-3-5-7|
|------------|


These are all of he riffs through out the whole song but I'm to lazy to do the rest so i'll
finish with the two solos.

Lyrics: Master MASTER!

|---------0h2p0---------| (2 Times)
|-------3-------3----4--|
|----0-2-2-------2/4---4|
|---2-------------------|
|--2--------------------|
|-0---------------------|

|---19-15--17-14-----17-14--15-12-----15-12--12h14p12-11-----------------------------|(4 Times)
|-17-----17-----15~15-----15-----13~13-----13-----------13-12-12-13-15-13-16-17-19-20|
|------------------------------------------------------------------------------------|
|------------------------------------------------------------------------------------|
|------------------------------------------------------------------------------------|
|------------------------------------------------------------------------------------|

Lyrics:laughter laughter all i hear or see is laughter, laughter laughter laughing at my crys!

|-17-12------------12-17-12------------12-17-12------------12--|
|--------13-12-13------------13-12-13------------13-12-13------|
|--------------------------------------------------------------|
|--------------------------------------------------------------|
|--------------------------------------------------------------|
|--------------------------------------------------------------|


|-15-12------------12-17-12------------12-17-12------------12--|
|--------13-12-13------------13-12-13------------13-12-13------|
|--------------------------------------------------------------|
|--------------------------------------------------------------|
|--------------------------------------------------------------|
|--------------------------------------------------------------|

[ Tab from: http://www.guitartabs.cc/tabs/m/metallica/master_of_puppets_tab_ver_9.html ]
|-17-12---------12-12-15-12-----------19-19-17-17-17-17-15-15-15-15--|
|--------13-12---------------13--/17---------------------------------|
|--------------------------------------------------------------------|
|--------------------------------------------------------------------|
|--------------------------------------------------------------------|
|--------------------------------------------------------------------|


|-14-14-14-14-17-17-17-17-15-15-15-15-14-14----------------------------|
|--------------------------------------------15--15-17-17b19r17b19r17--|
|----------------------------------------------------------------------|
|----------------------------------------------------------------------|
|----------------------------------------------------------------------|
|----------------------------------------------------------------------|

(~)  (whammy bar)
|-----------17p15p14---------------------------------------|
|-17p15p14------------17p15p14-----------------------------|
|--------------------------------16-14~~-------------------|
|----------------------------------------------------------|
|----------------------------------------------------------|
|----------------------------------------------------------|


|-----------------------------------|
|-----------------------------------|
|-2-4-(2)h4-4-3-2-------------------|
|------------------4-2-----(2)h4~~--|
|-----------------------2-----------|
|-----------------------------------|


|-10-8-7------8-7---------------7~--|
|---------10-------10-8-7-8-10------|
|-----------------------------------|
|-----------------------------------|
|-----------------------------------|
|-----------------------------------|


|-7-7-7-7-7-7--10-8-7-10-8-7--12-10-8-12-10-8--14-12-10-14-10-12--|
|-----------------------------------------------------------------|
|-----------------------------------------------------------------|
|-----------------------------------------------------------------|
|-----------------------------------------------------------------|
|-----------------------------------------------------------------|


|-15-15-12-14--17-16-14--19-17-14-14--17-16-14-14--19-17-14-14--|
|---------------------------------------------------------------|
|---------------------------------------------------------------|
|---------------------------------------------------------------|
|---------------------------------------------------------------|
|---------------------------------------------------------------|


|-17-16-14-14--19-17-14-14--17-16-14-14--19-17-14-14--|
|-----------------------------------------------------|
|-----------------------------------------------------|
|-----------------------------------------------------|
|-----------------------------------------------------|
|-----------------------------------------------------|


|-14-----14--14-----14--14~------------14-19p14---------19p14-14-----|
|-17b19------17b19------17b19~--17b19------------17b19--------17b19--|
|--------------------------------------------------------------------|
|--------------------------------------------------------------------|
|--------------------------------------------------------------------|
|--------------------------------------------------------------------|


|--------14---------14---------14---------14--|
|-17b19------17b19------17b19------17b19------|
|---------------------------------------------|
|---------------------------------------------|
|---------------------------------------------|
|---------------------------------------------|


|--------15---------15---------15---------15--|
|-18b20------18b20------18b20------18b20------|
|---------------------------------------------|
|---------------------------------------------|
|---------------------------------------------|
|---------------------------------------------|


|--------17---------17---------18---------18----------19---------19--|
|-20b22------20b22------21b23------21b23-------22b24------22b24------|
|--------------------------------------------------------------------|
|--------------------------------------------------------------------|
|--------------------------------------------------------------------|
|--------------------------------------------------------------------|

         (~)(vigorous whammy bar)
|-22b24------------------------------------------|
|------------------------------------------------|
|-----------------------------------------------|
|------------------------------------------------|
|------------------------------------------------|
|------------------------------------------------|


Comments