Metallica - Master Of Puppets Chords & Tabs

 

Master Of Puppets Chords & Tabs

Metallica Chords & Tabs

Version: 5 Type: Tab 5 ratings
1 star 2 stars 3 stars 4 stars 5 stars
comments

Master Of Puppets Tab

   
#----------------------------------PLEASE NOTE---------------------------------#
#This file is the author's own work and represents their interpretation of the #
#song. You may only use this file for private study, scholarship, or research. #
#------------------------------------------------------------------------------##

Song: Master of Puppets
Artist: Metallica
Album: Master of Puppets
Track: 02
Length: 8:38
Tabbed By Mike Wilson
Tuning: Standard (eBGDAE)
I am sure this is at least 90% correct. I have been playing guitar for nearly 2 years. This is my first tab. Sorry, I don’t have Kirks Solo. It is too hard for me to figure out. Enjoy.

Intro
   E5               D5 C#5  C                        N.C.
			x1			                          e |----------------|---------------|---------------|----------------|
B |----------------|---------------|---------------|----------------|
G |9---------------|7---6---5------|---------------|.---------------|
D |9---------------|7---6---5------|---------------|.---------------|
A |7---------------|5---4---3------|---------------|-----7-----6----|
E |0---------------|---------------|---------------|-0-0---0-0---0-0|


                                                
   D5   C#5  C5         N.C.(Em)               
  		     
e |-----------------|---------------|-----------------|
B |-----------------|---------------|-----------------|
G |7---6---5--------|---------------|----------------.|
D |7---6---5--------|---------------|----------------.|
A |5---4---3--------|---------------|-----------------|
E |-----------------|0-0-7-0-0-6-0-0|5-0-4-0-3-0-2-0--|  x4 


    N.C.
    PM...............................................                       
e |-----------------|----------------|----------------|-----------------|
B |-----------------|----------------|----------------|-----------------|
G |.----------------|----------------|----------------|----------------.|
D |.----------------|----------------|----------------|----------------.|
A |-----1-----2-----|3-----2-----1-1-|----1-----2-----|5\4---5\4---5\4--|
E |-0-0---0-0---0-0-|--0-0---0-0-----|0-0---0-0---0-0-|3\2-0-3\2-0-3\2--|
  


    N.C.
    PM...............................................                       
e |----------------|----------------|----------------|-----------------|
B |----------------|----------------|----------------|-----------------|
G |----------------|----------------|----------------|3---------------.|
D |----------------|----------------|----------------|3---------------.|
A |----1-----2-----|3-----2-----1-1-|----1-----2-----|1----------------|
E |0-0---0-0---0-0-|--0-0---0-0-----|0-0---0-0---0-0-|-----------------| 

    N.C.
    PM...............................................                       
e |-----------------|----------------|----------------|-----------------|
B |-----------------|----------------|----------------|-----------------|
G |.----------------|----------------|----------------|----------------.|
D |.----------------|----------------|----------------|----------------.|
A |-----1-----2-----|3-----2-----1-1-|----1-----2-----|5\4---5\4---5\4--|
E |-0-0---0-0---0-0-|--0-0---0-0-----|0-0---0-0---0-0-|3\2-0-3\2-0-3\2--|
  

               
                    E5            Verse Part à                  N.C.(Em)                
                    w/ Fill 1                        PM..............
e |----------------|---------------|---------------|-----------------|
B |----------------|---------------|---------------|-----------------|
G |----------------|---------------|---------------|.----------------|
D |----------------|2--------------|---------------|.----------------|
A |5\4---5\4---5\4-|2--------------|---------------|-----------------|
E |3\2-0-3\2-0-3\2-|0--------------|---------------|-0-0-0-0-0-0-0-0-|


                                    end RhyFig1
   PM               PM.................     
e |----------------|----------------|-----------|
B |----------------|----------------|-----------|
G |----------------|----------------|----------.|
D |----------------|----------------|----------.|
A |--5/7---8\7-5/7-|----------------|--4/5-4/5--|
E |0-3/5-0-6\5-3/5-|0-0-0-0-0-0-0-0-|0-2/3-2/3--|

/
   Fill 1
   PM...........................
e |----------------|----------------|----|
B |----------------|----------------|----|
G |----------------|----------------|----|
D |----8-----8-----|8-----8-----8===|====|
A |--7-----7-----7-|----7-----7-----|----|
E |0-----0-----0---|--0-----0-------|----|

Verse: Play verse part then this

e |-----------------|----------------|----------------|-----------|
B |-----------------|----------------|----------------|-----------|
G |.----------------|----------------|----------------|----------.|
D |.----------------|--4-4---5\4-4-4-|----------------|--4---4---.|
A |-----------------|--0-2---3\2-0-2-|----------------|--0h2-0h2--|
E |-2-2-2-2-2-2-2-2-|2---------------|2-2-2-2-2-2-2-2-|2----------|



   PM........
e |----------------|
B |----------------|
G |4-4-4-4-4-4-4-4-|
D |4-4-4-4-4-4-4-4-|
A |2-2-2-2-2-2-2-2-|
E |----------------|
                                                                  
                           CHORUS

    E5      D5  E5                              C5   B5          D#5  B5
    PM......         PM.......   vib    PM......          PM......
e |-----------------|------------------|-----------------|-----------------|
B |-----------------|------------------|-----------------|-----------------|
G |.9-------7---9---|------------------|-----------------|--------8-------.|
D |.9-------7---9---|----9-------------|--------10---9---|--------8---9---.|
A |-7-------5---7---|7-9---10-9h10=====|--------10---9---|--------6---9----|
E |-0-0-0-0---------|------------------|8-8-8-8-8----7---|8-8-8-8-----7----|


   N.C.(B)          E5               F                E5
   2 gtrs........                                                 PM..
e |----------------|----------------|----------------|----------------|
B |----------------|----------------|----------------|----------------|
G |----------------|4---4-----------|2---2-----------|4---------------|
D |7-5-4---4-------|2---2-----------|3---3-----------|2---------------|
A |9-7-6---6-7-6---|2---2-----------|3---3-----------|2---------------|
E |----------8-7---|0---0-----------|1---1-----------|0---------0-0-0-|


            G                                 C5               B5
       PM..                                             PM....   PM....
e |--------|----------------|----------------|----------------|--------|
B |--------|0---------------|----------------|----------------|--------|
G |--------|0---------------|----------------|5---------------|--------|
D |--------|0---------------|----------------|5---------------|4-------|
A |--------|----------------|----------------|3---------0-0-0-|2-0-0-0-|
E |2p0-0-0-|3---------------|----------------|----------------|--------|


   A5                              D                C5       B
                                             PM....   PM....
e |---------------|---------------|2---------------|--------|---------------|
B |---------------|---------------|3---------------|--------|4--------------|
G |2--------------|---------------|2---------------|--------|4--------------|
D |2--------------|---------------|0---------------|5-------|4--------------|
A |0--------------|---------------|----------------|3-------|2--------------|
E |---------------|---------------|----------3-3-3-|--3-3-3-|---------------|

[ Tab from: http://www.guitartabs.cc/tabs/m/metallica/master_of_puppets_tab_ver_5.html ]
   E5               D5       C                         E5
             PM....     PM..
e |----------------|--------|----------------|--------|----------------|
B |----------------|--------|5---------------|--------|----------------|
G |9---------------|7-------|5---------------|--------|4---4-----------|
D |9---------------|7-------|5---------------|--------|2---2-----------|
A |7---------------|5-------|3---------------|--------|2---2-----------|
E |0---------0-0-0-|----0-0-|----------------|--------|0---0-----------|


   F                E5                        C
                              PM.............
e |----------------|----------------|--------|----------------|
B |----------------|----------------|--------|5---------------|
G |2---2-----------|4---------------|--------|5---------------|
D |3---3-----------|2---------------|--------|5---------------|
A |3---3-----------|2---------------|--------|3---------------|
E |1---1-----------|0---------0-0-0-|2p0-0-0-|----------------|


   (C)              E5               F

e |----------------|----------------|----------------|
B |(5)-------------|----------------|----------------|
G |(5)-------------|4---4-----------|2---2-----------|
D |(5)-------------|2---2-----------|3---3-----------|
A |(3)-------------|2---2-----------|3---3-----------|
E |----------------|0---0-----------|1---1-----------|

                      Interlude

                       Kirks Part
     Em       D                   Cadd9              Amsus2   B7
                     /3\ 
e |--------|--------0h2p0----3-|------------------|-----------------|
B |--------|----3--------3-----|------3---3-----0-|(0)--0-------0---|
G |------0-|--2---2--------2p0-|(0)-0---0---0-----|---2-------2-----|
D |----2---|0------------------|--------------2---|-----------------|
A |--2-----|-------------------|-3----------------|-0-----0-2-----2-|
E |0-------|-------------------|------------------|-----------------|


                                                       James’ Solo Part
9a)James 
e-----19-15----17-14-------------17-14----15-12--- 
B--17-------17-------15-15-15-15-------15-------13 
G------------------------------------------------- 
D------------------------------------------------- 
A------------------------------------------------- 
E------------------------------------------------- 

e-----------15-12----14-12h14p12-11----------------11-12-14-15 
B--13-13-13-------13----------------13-12-13/15-13------------ 
G------------------------------------------------------------- 
D------------------------------------------------------------- 
A------------------------------------------------------------- 
E------------------------------------------------------------- 



e------------15-----15-17-15----19-15-12h15p12----------- 
B--17--17-19-----19----------19----------------13---15^-^ 
G-------------------------------------------------------- 
D-------------------------------------------------------- 
A-------------------------------------------------------- 
E-------------------------------------------------------- 


e--15-14----15-14------------------------------------ 
B--------12-------12h15p12--------15----------------- 
G---------------------------12-14-14^-^-^p12----12--- 
D--------------------------------------------14----14 
A---------------------------------------------------- 
E---------------------------------------------------- 


e------------------------------------------------ 
B------------------------------------------------ 
G-----12-14-12-11----14-12-11h12p11-------------- 
D--12-------------12----------------10-----9-10-- 
A---------------------------------------12------- 
E------------------------------------------------ 


e----------------------------------------15-14-11h12p11-------/19--- 
B----------------------------------12-------------------12-10-----17 
G----------------------------11-12----12---------------------------- 
D-----9-10--9-10-12-10-12-14---------------------------------------- 
A--12--------------------------------------------------------------- 
E-------------------------------------------------------------------
                                       
                                         Part After James’ Solo

    PM...........................     PM...........................
e |-----------------|----------------|----------------|-----------------|
B |-----------------|----------------|----------------|-----------------|
G |.----------------|----------------|----------------|----------------.|
D |.----3-----3-----|3-----3---------|----3-----3-----|3-----3-----4---.|
A |-----3-----3-----|3-----3-----2-2-|----3-----3-----|3-----3-----2----|
E |-0-0-1-0-0-1-0-0-|1-0-0-1-0-0-----|0-0-1-0-0-1-0-0-|1-0-0-1-0-0------|


                                   Part After Kirks  Legendary Solo           

E5                N.C.
   PM..............  PM...................         PM..................
e |----------------|-----------------|----------------|----------------|
B |----------------|-----------------|----------------|----------------|
G |----------------|.----------------|----------------|----------------|
D |----------------|.--------------2-|4-5-------------|----------------|
A |2-2-2-2-2-2-2-2-|---------2-3-5---|----3--------3-3|3-2-3-5-3-2-----|
E |0-0-0-0-0-0-0-0-|-0-2-3-5---------|----------------|------------3-2-|


                                2 gtrs
   PM..............  PM.....................         PM..................
e |-----------------|------------------|----------------|----------------|
B |-----------------|------------------|----------------|----------------|
G |----------------.|------------------|2-4-------------|----------------|
D |----------------.|------------4-2/5-|4-5-2--------2-2|2-0-2-4-2-0-----|
A |-----------------|--------2-3-5-----|----3--------3-3|3-2-3-5-3-2-3-2-|
E |0-0-0-0-0-0-0-00-|0-2-3-5-----------|----------------|------------3-2-|


                                           C
   PM......................................         PM..................
e |----------------|------------------|----------------|----------------|
B |----------------|------------------|----5-----------|----------------|
G |----------------|------------------|2-4-5-----------|----------------|
D |----------------|------------4-2/5-|4-5-5-----------|----------------|
A |----------------|--------2-3-5-----|----3--------3-3|3-2-3-5-3-2-----|
E |0-0-0-0-0-0-0-00|0-2-3-5-----------|----------------|------------3-2-|


   E5

e |----------------|----------------|
B |----------------|----------------|   
G |4---------------|------2---------|   
D |2------------5-5|5-4-5---5-4-2-4-|   
A |2------------3-3|3-2-3-5-3-2-----|
E |0---------------|------------3-2-|

         After This Play The Verse Part once again


Outro:
                                     E5

e |----------------|----------------|----------------|
B |----------------|----------------|----------------|
G |----------------|----------------|----------------|
D |----------------|----------------|2---------------|
A |----------------|5\4---5\4---5\4-|2---------------|
E |----------------|3\2-0-3\2-0-3\2-|0---------------|


Lyrics:
    Verse 1 

End of passion play, crumbling away
 I'm your source of self-destruction
 Veins that pump with fear, sucking darkest clear
 Leading on your deaths construction

 Chorus:
     Taste me you will see
     more is all you need you’re dedicated to
     How I'm killing you
     Come crawling faster
     Obey your Master
     Your life burns faster
     Obey your Master
     Master

     Master of Puppets I'm pulling your strings
     Twisting your mind and smashing your dreams
     Blinded by me, you can't see a thing
     Just call my name, `cause I'll hear you scream
     Master
     Master
     Just call my name, `cause I'll hear you scream
     Master
     Master
        Verse 2:
Needlework the way, never you betray
 life of death becoming clearer
 Pain monopoly, ritual misery
 chop your breakfast on a mirror

 [Chorus]
                Bridge:
 Master, Master, Where's the dreams that I've been after?
 Master, Master, You promised only lies
 Laughter, Laughter, All I hear and see is laughter
 Laughter, Laughter, laughing at my cries
                    Verse 3:
 Hell is worth all that, natural habitat
 Just a rhyme without a reason
 Never-ending maze, drift on numbered days
 now your life is out of season

 [Chorus]
 [Fade out with evil laughter].

Comments