Metallica - Master Of Puppets Chords & Tabs

 

Master Of Puppets Chords & Tabs

Metallica Chords & Tabs

Version: 4 Type: Tab 3 ratings
1 star 2 stars 3 stars 4 stars 5 stars
comments

Master Of Puppets Tab

Author/Artist: metallica
Title: master of puppets
Album: master of puppets
mike grant

------------------------------------------------------------------------------
-9-----7-6-5-----------------7-6-5--------------------------------------------
-9-----7-6-5-----------------7-6-5--------------------------------------------
-9-----7-6-5-----------------7-6-5--------------------------------------------
-7-----5-4-3-----------------5-4-3--------------------------------------------
-------------0-0-7-0-0-6-0-0-------0-0-7-0-0-6-0-0-5-0-4-0-3-0-2-0------------
 intro play 4 times                                                           

------------------------------------------------------------------------------
------------------------------------------------------------------------------
------------------------------------------------------------------------------
------------------------------------------------------------------------------
-----2-----3-----4-----3-----2-2-----2-----3------5/4---5/4---5/4-------------
-0-1---0-1---0-1---0-1---0-1-----0-1---0-1---0-1--3/2-0-3/2-0-3/2-------------
 P.M.___________________________________________I  play whole riff twice      

------------------------------------------------------------------------------
------------------------------------------------------------------------------
-------------------------------------------------------------4----------------
-------------------------------------------------------------4----------------
-----2-----3-----4-----3-----2-2-----2-----3-----4-----3-----2-------2-----3--
-0-1---0-1---0-1---0-1---0-1-----0-1---0-1---0-1---0-1---0-1-----0-1---0-1----
 P.M._______________________________________________________I   P.M._________ 

------------------------------------------------------------------------------
------------------------------------------------------------------------------
------------------------------------------------------------------------------
------------------------------------------------------------------------------
-----4-----3-----2-2-----2-----3-----5/4---5/4---5/4--------------------------
-0-1---0-1---0-1-----0-1---0-1---1-0-3/2-0-3/2-0-3/2--------------------------
 ___________________________________I      Play whole riff twice              

------------------------------------------------------------------------------
------------------------------------------------------------------------------
------------------------------------------------------------------------------
---------------------8-----8-----8-----8-----8-----8--------------------------
-5/4---5/4---5/4---7-----7-----7-----7-----7-----7----------------------------
-3/2-0-3/2-0-3/2-0-----0-----0-----0-----0-----0------------------------------
                                                                              

-|-----------------------------------------------------------------------|----
-|-----------------------------------------------------------------------|----
-|*---------------------------------------------------------------------*|----
-|*---------------------------------------------------------------------*|----
-|------------------------5/7-----8/-7--5/7-------------------5/7--5/7---|----
-|--0-0-0--0-0--0-0--0-0--3/5--0--6/-5--3/5-0-0-0-0-0-0-0-0-0-3/5--3/5---|----
    P.M.  low  E    (This  is rythm  figure 1) This is for the verses         

------------------------------------------------------------------------------
------------------------------------------------------------------------------
------------------------------------------------------------------------------
---------------------------4-4-----5/4---4-4-------------------4---4----------
---------------------------0-2-----3/2---0-2-------------------0h2-0h2--------
-2--2--2--2--2--2--2--2--2-------------------2-2-2-2-2-2-2-2-2----------------
 for the "Taste me you will see"... and the "I will occupy"... (P.M. low E)   

------------------------------------------------------------------------------
------------------------------------------------------------------------------
---------------------------------------------------------------4-4-4-4-4-4-4--
---------------------4-4---5/4---4-4-------------------4---4---4-4-4-4-4-4-4--
---------------------0-2---3/2---0-2-------------------0h2-0h2-2-2-2-2-2-2-2--
-2-2-2-2-2-2-2-2-2-------------------2-2-2-2-2-2-2-2-2------------------------
                                                                              

------|-----------------------------------------------------------|-----------
------|-----------------------------------------------------------|-----------
-4-4--|--9-------7-9----------------------------------------8-----|-----------
-4-4--|--9-------7-9-----9-----------------10--9------------8--9--|-----------
-2-2--|--7-------5-7-7-9---10-9h10---------10--9------------6--9--|-----------
------|----0-0-0-------------------8-8-8-8-8---7---8-8-8-8-----7--|-----------
        Play 3 times for the "Come crawling Faster..."                        

-----------------------------------|------------------------------------------
-----------------------------------|-----------------0------------------------
-----------------4-4-------2-2-----|-4---------------0------5-----------------
-7-5-4---4-------2-2-------3-3-----|-2---------------0------5-------4---------
-9-7-6---6-7-8---2-2-------3-3-----|-2----------------------3-0-0-0-2-0-0-0---
-----------8-7---0-0-------1-1-----|-0-0-0-0-2p0-0-0-3------------------------
 for the "Obey your MASTER MASTER!"  Chorus "Master of Puppets I'm..."        

--------2---------------------------------------------------------------------
--------3---------------4-----------------------5-----------------------------
-2------2---------------4----9--------7---------5-----------4-4---2-2---------
-2------0-------5-------4----9--------7---------5-----------2-2---3-3---------
-0--------------3-------2----7--------5---------3-----------2-2---3-3---------
----------3-3-3---3-3-3------0--0-0-0-----0---0-------------0-0---1-1---------
                                                                              

---------------------------------------------|--------------------------------
-------------------------5-------------------|--------------------------------
-4-----------------------5-------4-4---2-2---|*-------------------------------
-2-----------------------5-------2-2---3-3---|*-------------------------------
-2-----------------------3-------2-2---3-3---|-----2-----3-----4-----3-----2--
-0---------0-0-0-2p0-0-0---------0-0---1-1---|-0-1---0-1---0-1---0-1---0-1----
 "Just call my name 'cause I'll..."                                           

----------------------------------|----------------------------------|--------
----------------------------------|----------------------------------|--------
-------------------------------4-*|----------------------------------|--------
-------------------------------4-*|----------------------------------|--------
-2-----2-----3-----4-----3-----2--|-5/4---5/4---5/4-5/4---5/4---5/4--|--------
---0-1---0-1---0-1---0-1---1-0----|-3/2-0-3/2-0-3/2-3/2-0-3/2-0-3/2--|--------
                                                                              

------------------|-----------------------------------------------------------
------------------|-----------------------------------------------------------
--2--2------------|-----------------------------------------------------------
--3--3------------|-----------------------------------------------------------
--3--3------------|-----------------------------------------------------------
--1--1------------|-----------------------------------------------------------
 "MASTER MASTER!"                                                             

-----------------0h2p0-----3--------------------------------------------------
-------------3---------3---------3---3-----0-----0-------0-------0------------
-------0---2---2---------2p0---0---0---0-------2-------2-------2-----------2--
-----2---0-------------------------------2-------------------1-------2-4-5----
---2-------------------------3---------------0-----0-2-----2------------------
-0-----------------------------------------------------------------3----------
 Interlude                                                                    

-----|------19-19----20-17-------------20-17----19-15--------------19-15------
-----|---20----20-20-22-19-19-19-19-19-22-19-19-20-17-17--17-17-17-20-17-17---
-4-8-|*--21-------21-------19-19-19-19-------19-------17--17-17-17-------17---
-----|*-----------------------------------------------------------------------
-----|------------------------------------------------------------------------
-----|------------------------------------------------------------------------
                                                                              

-17-16h17p15-14----------14-----14-15-17-19--|-------------15^^^^^^----15-17--
-19-17h19p17-16-17-16-17-----17-16-17-19-20--|-17----17-19----------19--------
----------------17-16-17/19--17-------------*|--------------------------------
--------------------------------------------*|--------------------------------
---------------------------------------------|--------------------------------
---------------------------------------------|--------------------------------
                                              Solo #1                         

-15----19-15-12h15p12---------------------15-14----15-14----------------------
----19----------------13^^^^^^^^---15brbr-------12-------12h15p12-------------
------------------------------------------------------------------12-14-------
------------------------------------------------------------------------------
------------------------------------------------------------------------------
------------------------------------------------------------------------------
                                                                              

------------------------------------------------------------------------------
-15------------------------------------------------11h12p11-------------------
-14brbrbr-14p12----12---------12-14-12-11----14-12----------------------------
----------------14----14---12-------------12----------------10^^^^^----9-10---
--------------------------------------------------------------------12--------
------------------------------------------------------------------------------
                                                                              
[ Tab from: http://www.guitartabs.cc/tabs/m/metallica/master_of_puppets_tab_ver_4.html ]
------------------------------15-14-11h12p11-------19-|------19-19----20-17---
------------------------12-12----------------12-10----|---20----20-20-22-19---
------------------11-12-------------------------------|*--21-------21---------
-9-10-12-10-12-14-------------------------------------|*----------------------
------------------------------------------------------|-----------------------
------------------------------------------------------|-----------------------
                                                                              

--------------20-17----19-15--------------19-15----17-15h17p15-14-------------
-19--19-19-19-22-19-19-20-17-17--17-17-17-20-17-17-19-17h19p17-16-17--16------
-19--19-19-19-------19-------17--17-17-17-------17----------------17--16------
------------------------------------------------------------------------------
------------------------------------------------------------------------------
------------------------------------------------------------------------------
                                                                              

----14----14-15-17-19--|------------------0h2p0-----3-------------------------
-17----17-16-17-19-20--|--------------3---------3---------3---3-----0-----0---
-17/19-17-------------*|*-------0---2---2---------2p0---0---0---0-------2-----
----------------------*|*-----2---0-------------------------------2-----------
-----------------------|----2-------------------------3---------------0-------
-----------------------|--0---------------------------------------------------
                                                                              

--------------------|---------------------------------------------------------
-------0-------0----|---------------------------------------------------------
-----2-------2-----*|*--4-4-4-4-4-4-4-4-4-4-4-4-4-4-4-4-----------------------
-----------1-------*|*--2-2-2-2-2-2-2-2-2-2-2-2-2-2-2-2-----------------------
-0-2-----2----------|---2-2-2-2-2-2-2-2-2-2-2-2-2-2-2-2-4-4-5-4-4-4-5-4-4-4-4-
-----------------3--|---0-0-0-0-0-0-0-0-0-0-0-0-0-0-0-0-2-2-3-2-2-2-3-----2-2-
                        Palm mute the entire riff and play it 3 times for     

--------------|---------------------------------------------------------------
--------------|---------------------------------------------------------------
-------------*|--4----4-----3-------------------------------------------------
------------6*|--5----5-----4-------------------------------------------------
--5-4-4-4-5-4-|--5----5-----4-------------------------------------------------
--3-2-2-2-3---|--3----3-----2--------------17/////////------------------------
 the "Master master, where's the dreams..." and the inro to that              

-17p12----------12-17p12----------12-17p12----------12-15p12----------12------
-------13-12-13----------13-12-13----------13-12-13----------13-12-13---------
------------------------------------------------------------------------------
------------------------------------------------------------------------------
------------------------------------------------------------------------------
------------------------------------------------------------------------------
 Solo #2        (When you are playing this solo make sure nothing catches on  

-17p12----------12-17p12----------12-17p12-------12-12-15p12--------19-19-17--
-------13-13-12----------13-12-13----------13-12-------------13-/17-----------
------------------------------------------------------------------------------
------------------------------------------------------------------------------
------------------------------------------------------------------------------
------------------------------------------------------------------------------
 fire!)                                                                       

-17-17-17-15-15-15-14-14-14-14--------------------------17h19-----------------
-------------------------------15-15-17-17brbrb-17p5p14-------/17-15h14-------
------------------------------------------------------------------------16----
------------------------------------------------------------------------------
------------------------------------------------------------------------------
------------------------------------------------------------------------------
                                                                              

-----*\/\/-\/----\/\/\--------------------------------------------------------
-------------------------------------------------/15-13-12----13-12-----------
-14--------------------2-4-2b-4-3-2-0h2--------------------14-------14-12-11--
---------------------------------------4-2---2h4------------------------------
-------------------------------------------2----------------------------------
------------------------------------------------------------------------------
    * = fret note against a pickup    /\/\/ = trm. bar                        

-------------------------------------------------12----------12---------------
-------12-12-12-12-12-12-12-15-13-12-15-13-12-13----15-15-13----15-13h15-15---
-12-14------------------------------------------------------------------------
------------------------------------------------------------------------------
------------------------------------------------------------------------------
------------------------------------------------------------------------------
                                                                              

-14-------14-------15-15-------17-------19-17-------17----------19-17---------
----17-15----15-17-------17/19----20-19-------19-19----21-19-19-------19-19---
------------------------------------------------------------------------------
------------------------------------------------------------------------------
------------------------------------------------------------------------------
------------------------------------------------------------------------------
                                                                              

-17----------19-17-------17----------19-17-------14--14-----14------------14--
----21-19-19-------19-19----21-19-19-------19-19-17b----17b----17b-17-17b-----
------------------------------------------------------------------------------
------------------------------------------------------------------------------
------------------------------------------------------------------------------
------------------------------------------------------------------------------
                                                                              

-19p14-14------14-----14-----14-14-14-----14-14-----15-----15-----15-----15---
-------17b-17b----17b----17b----------17b-------18b----18b----18b----18b------
------------------------------------------------------------------------------
------------------------------------------------------------------------------
------------------------------------------------------------------------------
------------------------------------------------------------------------------
                                                                              

-----17-----17-----18-----18-----19-----19-22b--22/\/\/\/\*-------------------
-20b----20b----21b----21b----22b----22b--------------------/\/\/\/\/\/\/\-----
------------------------------------------------------------------------------
------------------------------------------------------------------------------
------------------------------------------------------------------------------
------------------------------------------------------------------------------
                                             * = depress and vibrate trem.    

-|-----------------------------------------------------------------|----------
-|-----------------------------------------------------------------|----------
-|*---------------------------------------------------------------*|----------
-|*-----3-----3-----3-----3-------------3-----3-----3-----3-----4-*|----------
-|------3-----3-----3-----3-----2-2-----3-----3-----3-----3-----2--|----------
-|--0-0-1-0-0-1-0-0-1-0-0-1-0-0-----0-0-1-0-0-1-0-0-1-0-0-1-0-0----|----------
                                                                              

-----------------|------------------------------------------------------------
-----------------|------------------------------------------------------------
-----------------|*-----------------------------------------------------------
-----------------|*---------------2-4-5---------------------------------------
-2-2-2-2-2-2-2-2-|----------2-3-5-------3-3-3-3-2-3-5-3-2---------------------
-0-0-0-0-0-0-0-0-|--0-2-3-5-------------------------------3-2-0-0-0-0-0-0-0---
                                                                              

------|-----------------------------------------------------------------------
------|-----------------------------------------------------------------------
-----*|-----------------2-4---------------------------------------------------
-----*|-------------4-2-4-5-2-2-2-2-0-2-4-2-0---------------------------------
------|---------2-3-5-------3-3-3-3-2-3-5-3-2-3-2-----------------------------
-0-0--|-0-2-3-5-------------------------------3-2-0-0-0-0-0-0-0-0-0-0-2-3-5---
                                                                              

-------------------------------------------------------------|----------------
-------------5-----------------------------------------------|----------------
---------2-4-5----------------------4--------------2---------|----------------
-----4-2-4-5-5----------------------2----5-5-5-4-5---5-4-2-4-|----------------
-2-3-5-------3--3-3-3-2-3-5-3-2-----2----3-3-3-2-3-5-3-2-----|----------------
--------------------------------3-2-0--------------------3-2-|----------------
                                                                              

-|--------------------------------------------------|-------------------------
-|--------------------------------------------------|-------------------------
-|*------------------------------------------------*|-------------------------
-|*------------------------------------------------*|-------------------------
-|-----2-----3-----4-----3-----2-2-----2-----3------|-5/4---5/4---5/4---------
-|-0-1---0-1---0-1---0-1---0-1-----0-1---0-1---1-0--|-3/2-0-3/2-0-3/2---------
                                                      ending 1                

-----------------------------------|------------------------------------------
-----------------------------------|------------------------------------------
-----------------------------------|------------------------------------------
-----------------------------------|------------------------------------------
-5/4---5/4---5/4---5/4---5/4---5/4-|------------------------------------------
-3/2-0-3/2-0-3/2---3/2-0-3/2-0-3/2-|------------------------------------------
 ending 2                            for verse 3 play rythm fig. 1 2x         

------------------------------------------------------------------------------
------------------------------------------------------------------------------
------------------4-----------------------------------------------------------
------------------2-----------------------------------------------------------
-5/4---5/4---5/4--2-----------------------------------------------------------
-3/2-0-3/2-0-3/2--0-----------------------------------------------------------
 outro w/ laughter  1x                                                        
Comments