Metallica - Master Of Puppets Chords & Tabs

 

Master Of Puppets Chords & Tabs

Metallica Chords & Tabs

Version: 20 Type: Tab 0 ratings
1 star 2 stars 3 stars 4 stars 5 stars
comments

Master Of Puppets Tab

   
Gtr I (E A D G B E) - 'James Hetfield (clean)'
Gtr II (E A D G B E) - 'James Hetfield (dirty)'
Gtr III (E A D G B E) - 'Kirk Hammett (dirty)'

Intro
  Fast Rock Q=220
 4/4
  Gtrs II, III
                                           PM------------|
  Q  Q  H      q  q  H      +W             E E E E E E E E
|------------|------------|------------||------------------|
|------------|-------5----|-(5)--------||o-----------------|
|-9----------|-7--6--5----|-(5)--------||------------------|
|-9----------|-7--6--5----|-(5)--------||------------------|
|-7----------|-5--4--3----|-(3)--------||o-----7-----6-----|
|-0----------|------------|------------||--0-0---0-0---0-0-|


               PM----------------------------|
  q  q  H      E E E E E E E E   E E E E E E E E  4x
|------------|-----------------|------------------||
|-------5----|-----------------|-----------------o||
|-7--6--5----|-----------------|------------------||
|-7--6--5----|-----------------|------------------||
|-5--4--3----|-----------------|-----------------o||
|------------|-0-0-7-0-0-6-0-0-|-5-0-4-0-3-0-2-0--||


    Gtr II                                              Gtrs II, III
    PM------------------------------------------------|
    E E E E E E E E   E E E E E E E E   E E E E E E E E   E E E E E E E E
||------------------|-----------------|-----------------|-------------------||
||o-----------------|-----------------|-----------------|------------------o||
||------------------|-----------------|-----------------|-------------------||
||------------------|-----------------|-----------------|-------------------||
||o-----2-----3-----|-4-----3-----2-2-|-----2-----3-----|-5s4---5s4---5s4--o||
||--0-1---0-1---0-1-|---0-1---0-1-----|-0-1---0-1---1-0-|-3s2-0-3s2-0-3s2---||


    PM------------------------------------------------|
    E E E E E E E E   E E E E E E E E   E E E E E E E E   E E E E E E Q
||------------------|-----------------|-----------------|-----------------|
||o-----------------|-----------------|-----------------|-----------------|
||------------------|-----------------|-----------------|-------------4---|
||------------------|-----------------|-----------------|-------------4---|
||o-----2-----3-----|-4-----3-----2-2-|-----2-----3-----|-4-----3-----2---|
||--0-1---0-1---0-1-|---0-1---0-1-----|-0-1---0-1---0-1-|---0-1---1-0-----|


  PM------------------------------------------------|
  E E E E E E E E   E E E E E E E E   E E E E E E E E   E E E E E E E E
|-----------------|-----------------|-----------------|------------------||
|-----------------|-----------------|-----------------|-----------------o||
|-----------------|-----------------|-----------------|------------------||
|-----------------|-----------------|-----------------|------------------||
|-----2-----3-----|-4-----3-----2-2-|-----2-----3-----|-5s4---5s4---5s4-o||
|-0-1---0-1---0-1-|---0-1---0-1-----|-0-1---0-1---1-0-|-3s2-0-3s2-0-3s2--||


  Gtr II
  E E E E E E E E   Q   Q   H         W
|-----------------|-----------------|-------------------|
|-----------------|-----------------|-------------------|
|-----------------|-----------------|-------------------|
|-----------------|-2---------------|-------------------|
|-5s4---5s4---5s4-|-2---------------|-------------------|
|-3s2-0-3s2-0-3s2-|-0---------------|-------------------|
|
| Gtr III
|                   PM--------------------------| ~~~~~~
| E E E E E E E E   E E E E E E E E   E E E E E E E +E
|-----------------|-----------------|-------------------|
|-----------------|-----------------|-------------------|
|-----------------|-----------------|-------------------|
|-----------------|-----8-----8-----|-8-----8-----8-(8)-|
|-5s4---5s4---5s4-|---7-----7-----7-|-----7-----7-------|
|-3s2-0-3s2-0-3s2-|-0-----0-----0---|---0-----0---------|


   Pre-Verse
                                                         5/8
    Gtrs II, III
    PM----------------|                 PM----------------|
    E E E E E E E E   E E E E E E E E   E E E E E E E E   E E E E E
||------------------|-----------------|-----------------|-------------||
||o-----------------|-----------------|-----------------|------------o||
||------------------|-----------------|-----------------|-------------||
||------------------|-----------------|-----------------|-------------||
||o-----------------|---5s7---8s7-5s7-|-----------------|---5s7-5s7--o||
||--0-0-0-0-0-0-0-0-|-0-3s5-0-6s5-3s5-|-0-0-0-0-0-0-0-0-|-0-3s5-3s5---||
 |rhy Fig 1                                             end Rhy Fig 1-|

   Verse
    $
   4/4                                                   5/8
    Gtrs II, III
    PM----------------|                 PM----------------|
    E E E E E E E E   E E E E E E E E   E E E E E E E E   E E E E E  4x
||------------------|-----------------|-----------------|------------||
||o-----------------|-----------------|-----------------|-----------o||
||------------------|-----------------|-----------------|------------||
||------------------|-----------------|-----------------|------------||
||o-----------------|---5s7---8s7-5s7-|-----------------|---5s7-5s7-o||
||--0-0-0-0-0-0-0-0-|-0-3s5-0-6s5-3s5-|-0-0-0-0-0-0-0-0-|-0-3s5-3s5--||


  $$
 4/4                                                   5/8
  PM----------------|                 PM----------------|
  E E E E E E E E   E E E E E E E E   E E E E E E E E   E E E E E
|-----------------|-----------------|-----------------|-----------|
|-----------------|-----------------|-----------------|-----------|
|-----------------|-----------------|-----------------|-----------|
|-----------------|---4-4---5s4-4-4-|-----------------|---4---4---|
|-----------------|---0-2---3s2-0-2-|-----------------|---0h2-0h2-|
|-2-2-2-2-2-2-2-2-|-2---------------|-2-2-2-2-2-2-2-2-|-2---------|
|-Rhy Fig 2                                         end Rhy Fig 2-|

 4/4
  PM----------------|
  E E E E E E E E   E E E E E E E E
|-----------------|-----------------|
|-----------------|-----------------|
|-----------------|-----------------|
|-----------------|---4-4---5s4-4-4-|
|-----------------|---0-2---3s2-0-2-|
|-2-2-2-2-2-2-2-2-|-2---------------|


                   5/8         4/4
  PM----------------|           PM------|
  E E E E E E E E   E E E E E   E E E E E E E E
|-----------------|-----------|------------------||
|-----------------|-----------|------------------||
|-----------------|-----------|-4-4-4-4-4-4-4-4--||
|-----------------|---4---4---|-4-4-4-4-4-4-4-4--||
|-----------------|---0h2-0h2-|-2-2-2-2-2-2-2-2--||
|-2-2-2-2-2-2-2-2-|-2---------|------------------||


 Pre-Chorus
  PM----|                     ~~~
  E E E E Q  Q    E E E  E E  Q.     E E E E  Q  Q    E E E E Q  Q
|---------------|------------------|----------------|---------------||
|---------------|------------------|----------------|---------------||
|-9-------7--9--|------------------|----------------|---------8-----||
|-9-------7--9--|-----9------------|---------10--9--|---------8--9--||
|-7-------5--7--|-7-9---10-9h10----|---------10--9--|---------6--9--||
|-0-0-0-0-------|------------------|-8-8-8-8--8--7--|-8-8-8-8----7--||


                                                       1.,2.
    PM----|                     ~~~
    E E E E Q  Q    E E E  E E  Q.     E E E E  Q  Q    E E E E Q  Q    3x
||----------------|------------------|----------------|-----------------||
||o---------------|------------------|----------------|----------------o||
||--9-------7--9--|------------------|----------------|---------8-------||
||--9-------7--9--|-----9------------|---------10--9--|---------8--9----||
||o-7-------5--7--|-7-9---10-9h10----|---------10--9--|---------6--9---o||
||--0-0-0-0-------|------------------|-8-8-8-8--8--7--|-8-8-8-8----7----||


                                             Chorus
  3.
                                                       PM--|
  E E E E E E E E   Q  Q  H      Q  Q  H      H    +E  E E E
|-----------------|------------|------------|----------------|
|-----------------|------------|------------|----------------|
|-----------------|-4--4-------|-2--2-------|-4----(4)-------|
|-7-5-4---4-------|-2--2-------|-3--3-------|-2----(2)-------|
|-9-7-6---6-7-6---|-2--2-------|-3--3-------|-2----(2)-------|
|-----------8-7---|-0--0-------|-1--1-------|-0----(0)-0-0-0-|


 2/4       4/4                                      2/4
      PM|                                    PM--|     PM--|
  E E E E   W          +W           H    +E  E E E   E E E E
|---------|----------|------------|----------------|----------|
|---------|-0--------|-(0)--------|----------------|----------|
|---------|-0--------|-(0)--------|-5----(5)-------|----------|
|---------|-0--------|-(0)--------|-5----(5)-------|-4--------|
|---------|----------|------------|-3----(3)-0-0-0-|-2-0-0-0--|
|-2p0-0-0-|-3--------|-(3)--------|----------------|----------|


 4/4                                      2/4       4/4
                                   PM--|     PM--|
  W          +W           H    +E  E E E   E E E E   W
|----------|------------|-2----(2)-------|---------|------|
|----------|------------|-3----(3)-------|---------|-4----|
|-2--------|-(2)--------|-2----(2)-------|---------|-4----|
|-2--------|-(2)--------|-0----(0)-------|-5-------|-4----|
|-0--------|-(0)--------|----------------|-3-------|-2----|
|----------|------------|----------3-3-3-|---3-3-3-|------|


                  2/4      4/4        2/4      4/4
           PM--|      PM|
  H    +E  E E E   q  E E   W          +H       Q  Q  H
|----------------|--------|----------|--------|------------|
|----------------|--------|-5--------|-(5)----|------------|
|-9----(9)-------|-7------|-5--------|-(5)----|-4--4-------|
|-9----(9)-------|-7------|-5--------|-(5)----|-2--2-------|
|-7----(7)-------|-5------|-3--------|-(3)----|-2--2-------|
|-0----(0)-0-0-0-|----0-0-|----------|--------|-0--0-------|


                               2/4       4/4
                        PM--|       PM|
  Q  Q  H      H    +E  E E E   E E E E   W          +W
|------------|----------------|---------|----------|--------|
|------------|----------------|---------|-5--------|-(5)----|
|-2--2-------|-4----(4)-------|---------|-5--------|-(5)----|
|-3--3-------|-2----(2)-------|---------|-5--------|-(5)----|
|-3--3-------|-2----(2)-------|---------|-3--------|-(3)----|
|-1--1-------|-0----(0)-0-0-0-|-2p0-0-0-|----------|--------|


      To CoTo Dbl. Coda
  Q  Q  H      Q  Q  H        E E E E E E E E   E E E E E E E E
|------------|------------||------------------|-----------------|
|------------|------------||o-----------------|-----------------|
|-4--4-------|-2--2-------||------------------|-----------------|
|-2--2-------|-3--3-------||------------------|-----------------|
|-2--2-------|-3--3-------||o-----2-----3-----|-4-----3-----2-2-|
|-0--0-------|-1--1-------||--0-1---0-1---0-1-|---0-1---0-1-----|


                   1.                  2.
                                                           D.S. al Coda
  E E E E E E E E   E E E E E E Q      E E E E E E E E   E E E E E E E E
|-----------------|-----------------||-----------------|-----------------|
|-----------------|----------------o||-----------------|-----------------|
|-----------------|-------------4---||-----------------|-----------------|
|-----------------|-------------4---||-----------------|-----------------|
|-----2-----3-----|-4-----3-----2--o||-5s4---5s4---5s4-|-5s4---5s4---5s4-|
|-0-1---0-1---0-1-|---0-1---1-0-----||-3s2-0-3s2-0-3s2-|-3s2-0-3s2-0-3s2-|


  &
 4/4
  Q  Q  H      W          W
|------------|----------|------|
|------------|----------|------|
|-2--2-------|----------|------|
|-3--3-------|----------|------|
|-3--3-------|----------|------|
|-1--1-------|----------|------|


 Interlude
  Slower Q=110
 2/4       4/4
  Gtr I
                    |-3-|
  E E E E   E E E E S S S E E E    E  E E E E E E E
|---------|---------0h2p0-----3-|-------------------|
|---------|-----3---------3-----|-------3---3-----0-|
|-------0-|---2---2---------2p0-|-(0)-0---0---0-----|
|-----2---|-0-------------------|---------------2---|
|---2-----|---------------------|--3----------------|
|-0-------|---------------------|-------------------|


                       2/4
  +E  E Q   +E  E Q     +E  E Q
|---------------------|-------------|
|-(0)---0---(0)---0---|-(0)---0-----|
|-----2---------2-----|-----2-------|
|---------------------|--1----------|
|--0------0--2------2-|-------------|
|---------------------|---------3---|
   Q.     E  Q.     E    Q.     E


 2/4       4/4
  Gtr I
                    |-3-|
  E E E E   E E E E S S S E E E    E  E E E E E E E
|---------|---------0h2p0-----3-|-------------------|
|---------|-----3---------3-----|-------3---3-----0-|
|-------0-|---2---2---------2p0-|-(0)-0---0---0-----|
|-----2---|-0-------------------|---------------2---|
|---2-----|---------------------|--3----------------|
|-0-------|---------------------|-------------------|
|
| Gtr III
| <         <                      <
| h         w                      w
|---------|---------------------|-------------------|
|---------|---------------------|-------------------|
|---------|---------------------|-------------------|
|-2-------|-4-------------------|--5----------------|
|---------|---------------------|-------------------|
|---------|---------------------|-------------------|


                       2/4
  +E  E q   +E  E q     +E  E q
|---------------------|-------------|
|-(0)---0---(0)---0---|-(0)---0-----|
|-----2---------2-----|-----2-------|
|---------------------|--1----------|
|--0------0--2------2-|-------------|
|---------------------|---------3---|
|  q.     E  q.     E    q.     E
|
|  <         <           <
|  H         H           H
|---------------------|-------------|
|---------------------|-------------|
|--2---------4--------|--8----------|
|---------------------|-------------|
|---------------------|-------------|
|---------------------|-------------|


   guitar break
   2/4           4/4
                                  |-3-|
     E  E  E  E    E  E  E  E     s s s  E  E  E    E   E  E  E     E  E  E  E
||--------------|-----------------0h2p0--------3-|-----------------------------|
||o-------------|--------3---------------3-------|---------3--------3--------0-|
||------------0-|-----2-----2---------------2p=0-|-(0)--0-----0--------0-------|
||---------2----|--0-----------------------------|------------------------2----|
||o-----2-------|--------------------------------|--3--------------------------|
||---0----------|--------------------------------|-----------------------------|
|
|   gtr ii
|    E  E  E  E    E  E  E  s  s  E      E  E  E    E   E  E  s  s  E  E  E  E
||-----19-19----|-20-17-----------------20-17----|-19--15-------------19-15----|
||o-20-------20-|-------19-19-19-19-----------19-|--------17-17-17-17-------17-|
||--------------|--------------------------------|-----------------------------|
||--------------|--------------------------------|-----------------------------|
||o-------------|--------------------------------|-----------------------------|
||--------------|--------------------------------|-----------------------------|
|
|   gtr iii
|    E  E  E  E    E  E  E  s  s  E      E  E  E    E   E  E  s  s  E  E  E  E
||--------------|--------------------------------|-----------------------------|
||o----22-20----|-22-19-----------------22-19----|-20--17-------------20-17----|
||--21-------21-|-------19-19-19-19-----------19-|--------17-17-17-17-------17-|
||--------------|--------------------------------|-----------------------------|
||o-------------|--------------------------------|-----------------------------|
||--------------|--------------------------------|-----------------------------|


                                   2/4
  +E   E        q    +E   E  q      +E   E  q
|---------------------------------|------------------||
|-(0)-----------0----(0)-----0----|-(0)-----0-------o||
|------2------------------2-------|------2-----------||
|---------------------------------|--1---------------||
|--0---------------0--2---------2-|-----------------o||
|---------------------------------|------------3-----||
|  q.              E  q.        E    q.        E
|
|  E   t  t  s  E  E  E   E  E  E    E   E  E  E
|-17--15h17p15-14-----------14----|-14--15-17-19-----||
|-----------------17-16--17----17-|-----------------o||
|---------------------------------|------------------||
|---------------------------------|------------------||
|---------------------------------|-----------------o||
|---------------------------------|------------------||
|
|  E   t  t  s  E  E  E   E  E  E    E   E  E  E
|---------------------------------|------------------||
|-19--17h19p17-16-----------------|-16--17-19-20----o||
|-----------------17-16--17-19-17-|------------------||
|---------------------------------|------------------||
|---------------------------------|-----------------o||
|---------------------------------|------------------||


 guitar solo
  em
 2/4             4/4
  gtr ii
   H              +w
   |               |
   /               /

  gtr i
                                 |-3--|
   E  E E  E       E  E E  E     s s  s E     E     E
|---------------|----------------0h2p=0-------------3-------|
|---------------|-------3---------------3-------------------|
|----------0----|-----2----2------------------2p====0-------|
|-------2-------|--0----------------------------------------|
|-----2---------|-------------------------------------------|
|--0------------|-------------------------------------------|
|
| gtr iii
|                  ~~~
|                                |----3----|        |--3--|
|  q.      s  s    q.      s  s  e    e    e  e  a  s  s  s
|---------------|-15---------15-17---15------19-15-12h15p12-|
|-17------17-19-|---------19--------------19----------------|
|---------------|-------------------------------------------|
|---------------|-------------------------------------------|
|---------------|-------------------------------------------|
|---------------|-------------------------------------------|


   w                                         w
   E   E E E       E      E    E       E     E      E  q          +E  E   q
|-----------------------------------------|----------------------------------------|
|--------3---------3-------------------0--|--0---------0----------(0)-----0--------|
|-(0)--0---0--------------0---------------|---------2-----------------2------------|
|------------------------------2----------|----------------------------------------|
|--3--------------------------------------|--0---------------0-----2-------------2-|
|-----------------------------------------|----------------------------------------|
|                                            q.              E     q.            E
|
|  ~~~~~~~~~~~~~~~                                                 ~~~~~~~~~~
|  q..        +s   e     +e   +e      +e     s   s  e  s  s  s  s  q     +s   s  e
|-----------------------------------------|-15--14----15-14------------------------|
|-13---------(13)-15b17r(15)-(15)b17r(15)-|--------12-------12h15p12----(12)-------|
|-----------------------------------------|----------------------------------12-14-|
|-----------------------------------------|----------------------------------------|
|-----------------------------------------|----------------------------------------|
|-----------------------------------------|----------------------------------------|


 2/4
  +E           E            q                      E  E E  E
|-----------------------------------------------|------------|
|-(0)-----------------------0-------------------|------------|
|--------------2--------------------------------|----------0-|
|--1--------------------------------------------|-------2----|
|-----------------------------------------------|-----2------|
|------------------------------------------3----|--0---------|
|  q.                                      E
|
|                                                  ~~~
|                           |-----3-----|
|  s     +s   +s      +s   +s      +s   s  s  s    q.      e
|-----------------------------------------------|------------|
|-15--------------------------------------------|------------|
|-14b16r(14)-(14)b16r(14)-(14)b16r(14)-12----12-|------------|
|-----------------------------------------14----|-14------12-|
|-----------------------------------------------|------------|
|-----------------------------------------------|------------|

[ Tab from: http://www.guitartabs.cc/tabs/m/metallica/master_of_puppets_tab_ver_20.html ]
 4/4
                     |-3-|
   E  E     E     E  s s s  E  E  E          E  E E  E    E  E E E
|--------------------0h2p0--------3-------|----------------------------|
|-----------3---------------3-------------|-------3-------3------0-----|
|-----2-----------2------------2p=0-------|--0--0----0-------0---------|
|--0--------------------------------------|--------------------2-------|
|-----------------------------------------|--3-------------------------|
|-----------------------------------------|----------------------------|
|
|                    ~~~                     ~~~
|                                 |--3--|
|  e.    s  s. t  e  e      e  e  s  s  s    q.      s s  q.     s  s
|-----------------------------------------|----------------------------|
|-----------------------------------------|----------------------------|
|-12----14-12----11--------14-12-11h12p11-|----------------------------|
|-------------------12--------------------|-10---------9-10------9-10--|
|-----------------------------------------|---------12-----------------|
|-----------------------------------------|----------------------------|


                                       2/4
   E     E     q         +E   E  q      +E        E  q
|-------------------------------------|--------------------|
|--0-----------0---------(0)-----0----|-(0)----------0-----|
|--------2--------------------2-------|-----------2--------|
|-------------------------------------|--1-----------------|
|--0----------------0-----2---------2-|--------------------|
|-------------------------------------|------------------3-|
|  q.               E     q.        E    q.              E
|
|  |---3----|  |---3---|                 |--3--|
|  E   E    E  E  E    E  E   E  E  E    s  s  s  E  E   E
|-------------------------------15-14-|-11h12p11-------/19-|
|------------------------12-----------|----------12-10-----|
|----------------11---12-----12-------|--------------------|
|-12--10---12-14----------------------|--------------------|
|-------------------------------------|--------------------|
|-------------------------------------|--------------------|


   2/4           4/4
                                  |-3-|
     E  E  E  E    E  E  E  E     s s s  E  E  E    E   E  E  E     E  E  E  E
||--------------|-----------------0h2p0--------3-|-----------------------------|
||o-------------|--------3---------------3-------|---------3--------3--------0-|
||------------0-|-----2-----2---------------2p=0-|-(0)--0-----0--------0-------|
||---------2----|--0-----------------------------|------------------------2----|
||o-----2-------|--------------------------------|--3--------------------------|
||---0----------|--------------------------------|-----------------------------|
|
|   gtr ii
|    E  E  E  E    E  E  E  s  s  E      E  E  E    E   E  E  s  s  E  E  E  E
||-----19-19----|-20-17-----------------20-17----|-19--15-------------19-15----|
||o-20-------20-|-------19-19-19-19-----------19-|--------17-17-17-17-------17-|
||--------------|--------------------------------|-----------------------------|
||--------------|--------------------------------|-----------------------------|
||o-------------|--------------------------------|-----------------------------|
||--------------|--------------------------------|-----------------------------|
|
|   gtr iii
|    E  E  E  E    E  E  E  s  s  E      E  E  E    E   E  E  s  s  E  E  E  E
||--------------|--------------------------------|-----------------------------|
||o----22-20----|-22-19-----------------22-19----|-20--17-------------20-17----|
||--21-------21-|-------19-19-19-19-----------19-|--------17-17-17-17-------17-|
||--------------|--------------------------------|-----------------------------|
||o-------------|--------------------------------|-----------------------------|
||--------------|--------------------------------|-----------------------------|


                                   2/4
  +E   E        q    +E   E  q      +E   E  q
|---------------------------------|------------------||
|-(0)-----------0----(0)-----0----|-(0)-----0-------o||
|------2------------------2-------|------2-----------||
|---------------------------------|--1---------------||
|--0---------------0--2---------2-|-----------------o||
|---------------------------------|------------3-----||
|  q.              E  q.        E    q.        E
|
|  E   t  t  s  E  E  E   E  E  E    E   E  E  E
|-17--15h17p15-14-----------14----|-14--15-17-19-----||
|-----------------17-16--17----17-|-----------------o||
|---------------------------------|------------------||
|---------------------------------|------------------||
|---------------------------------|-----------------o||
|---------------------------------|------------------||
|
|  E   t  t  s  E  E  E   E  E  E    E   E  E  E
|---------------------------------|------------------||
|-19--17h19p17-16-----------------|-16--17-19-20----o||
|-----------------17-16--17-19-17-|------------------||
|---------------------------------|------------------||
|---------------------------------|-----------------o||
|---------------------------------|------------------||


   breakdown
    emopen    d5
   2/4       4/4
    gtr iii
    H         w
    |         |
    /         /

    gtr ii
      pm------------|
                      |-3-|
    E E E E   E E E E s s s E E E
||----------|---------0h2p0-----3-|
||o---------|-----3---------3-----|
||--------0-|---2---2---------2p0-|
||------2---|-0-------------------|
||o---2-----|---------------------|
||--0-------|---------------------|


  c5                a5      b5        eb5
                                     2/4
  w                 H       H         H
  |                 |       |         |
  /                 /       /         /

  pm----------------------------------------|
  E E E E E E E E   E E E E E E E E   E E E E
|-----------------|-----------------|-----------||
|-----3---3-----0-|-----0-------0---|-----0----o||
|---0---0---0-----|---2-------2-----|---2-------||
|-------------2---|-----------------|-1---------||
|-3---------------|-0-----0-2-----2-|----------o||
|-----------------|-----------------|-------3---||


 4/4
  pm------------------------|           pm--------------------------------|
  E E E E E E E E   E E E E E E E E     E E E E E E E s s   E E E E E E E E   6x
|-----------------|-----------------||--------------------|-------------------||
|-----------------|-----------------||o-------------------|------------------o||
|-4-4-4-4-4-4-4-4-|-4-4-4-4-4-4-4-4-||--------------------|-------------------||
|-2-2-2-2-2-2-2-2-|-2-2-2-2-2-2-2-2-||--------------------|---------------6---||
|-2-2-2-2-2-2-2-2-|-2-2-2-2-2-2-2-2-||o-4-4-5-4-4-4-5-4-4-|-4-4-5-4-4-4-5-4--o||
|-0-0-0-0-0-0-0-0-|-0-0-0-0-0-0-0-0-||--2-2-3-2-2-2-3-----|-2-2-3-2-2-2-3-----||


  double time q=220
                                     gtr iv
  w          +w           w          s s s s s s s s s s s s s s s s
|----------|------------|----------|----------------------------------|
|----------|------------|----------|----------------------------------|
|-4--------|-(4)--------|-3--------|----------------------------------|
|-5--------|-(5)--------|-4--------|-x-x-x-x-x-x-x-x-x-x-x-x-x-x-x-x--|
|-5--------|-(5)--------|-4--------|-x-x-x-x-x-x-x-x-x-x-x-x-x-x-x-x--|
|-3--------|-(3)--------|-2--------|-x-x-x-x-x-x-x-x-x-x-x-x-x-x-x-x--|


 guitar solo
w/rhy fig 1 x4
  gtr iii
   |---3---|  |---3---|  |---3---|  |---3---|
   E  E    E  E  E    E  E  E    E  E  E    E
|-17p12--------------12-17p12--------------12-|
|---------13-12-13--------------13-12-13------|
|---------------------------------------------|
|---------------------------------------------|
|---------------------------------------------|
|---------------------------------------------|



   |---3---|  |---3---|  |---3---|  |---3---|    |---3---|  |---3---|  |---3---|  |---3---|
   E  E    E  E  E    E  E  E    E  E  E    E    E  E    E  E  E    E  E  E    E  E  E    E
|-17p12--------------12-15p12--------------12-|-17p12--------------12-17p12--------------12-|
|---------13-12-13--------------13-12-13------|---------13-12-13--------------13-12-13------|
|---------------------------------------------|---------------------------------------------|
|---------------------------------------------|---------------------------------------------|
|---------------------------------------------|---------------------------------------------|
|---------------------------------------------|---------------------------------------------|



 5/8                            4/4
   |---3---|                       |---3---|              |---3---|
   e  e    e  s  s  s  s  s  s     e  e    e  s  s  s  s  e  e    e  s  s  s  s
|-17p12---------12-12-15p12----|-----19---19-17-17-17-17-15-15---15-14-14-14-14-|
|---------13-12-------------13-|-/17--------------------------------------------|
|------------------------------|------------------------------------------------|
|------------------------------|------------------------------------------------|
|------------------------------|------------------------------------------------|
|------------------------------|------------------------------------------------|



   |---3---|
   e  e    e  s  s  s  s  s  s  s  s  e  s  s
|-17-17---17-15-15-15-14-14-14-14-14-----------|
|------------------------------------15-15-17--|
|----------------------------------------------|
|----------------------------------------------|
|----------------------------------------------|
|----------------------------------------------|



                                                         5/8
                                  |---3---|                |---3---|
   E.      +s      +E       +E    E  E    E  s  E     s    E  E    E  q    E
|-------------------------------------------17h19\------|--------------------|
|-17b19r==(19)b19r(17)b19==(19)r-17p15p==14----------17-|-15-14--------------|
|-------------------------------------------------------|---------16-14\-----|
|-------------------------------------------------------|--------------------|
|-------------------------------------------------------|--------------------|
|-------------------------------------------------------|--------------------|



 4/4
           \3______/    \1.5   /    /2___________/7________|    /   \1   \2
           ~~~~~~~~~~~                                                   ~~~~
                                                                              |--3--|
    q     +q      +E   +s     +s   +E    +E     +q.       +E   +s  +s   +E   +E E   E
|-[13]---(13)----(13)-(13)---(13)-(13)--(13)-|-(13)------(13)-(13)(13)-(13)-(13)-------|
|--------------------------------------------|-----------------------------------------|
|--------------------------------------------|----------------------------------2---4--|
|--------------------------------------------|-----------------------------------------|
|--------------------------------------------|-----------------------------------------|
|--------------------------------------------|-----------------------------------------|



                             5/8
  s    +s   E E E A E E E E   E E +q.
|---------------------------|-------------|
|---------------------------|-------------|
|-2b4==(4)r-4-3-2-0s2-------|-------------|
|---------------------4-2---|-2h4-(4)-----|
|-------------------------2-|-------------|
|---------------------------|-------------|



 4/4
                                                   |-1:1-|
   E  E  E  E  E  E  E  E    E  E  E  E  +E  s  s  s  s  s  s
|-------------------------|------------------------------------|
|-15-13-12----13-12-------|----------12-(12)12-12-12-12-12-12--|
|----------14-------14-12-|-11-12-14---------------------------|
|-------------------------|------------------------------------|
|-------------------------|------------------------------------|
|-------------------------|------------------------------------|



   s  s  s  s  s  s  s  s  s  s  s  s  s  s  a  s  s
|-------------------------12----------12-------------|
|-12-15-13-12-15-13-12-13----15-15-13----15-13h15-15-|
|----------------------------------------------------|
|----------------------------------------------------|
|----------------------------------------------------|
|----------------------------------------------------|


                                |-w/rhy fig 2 x2
 5/8                             4/4
                                               |---3---|
   s  s  s  s  s  s  s  s  s  s    s  s  s  s  e  e    e  s  s  s  s  s  s  s  s
|-14-------14-------15-15-------|-17-------19-17---------17----------19-17---------|
|----17-15----15-17-------17s19-|----20-19-------19---19----21-19-19-------19-19---|
|-------------------------------|--------------------------------------------------|
|-------------------------------|--------------------------------------------------|
|-------------------------------|--------------------------------------------------|
|-------------------------------|--------------------------------------------------|



  gtr iii
   s  s  s  s  s  s  s  s  s  s  s  s  s  s  s  s
|-17----------19-17-------17----------19-17-------|
|----21-19-19-------19-19----21-19-19-------19-19-|
|-------------------------------------------------|
|-------------------------------------------------|
|-------------------------------------------------|
|-------------------------------------------------|




   s      +s    e  s      +s    e  s      +s    e   s      +s    e
|-14-----(14)--14--------------14-------------------------------14-|
|-17b19==(19)r----17b19==(19)r----17b19==(19)r-17\-17b20==(20)r----|
|------------------------------------------------------------------|
|------------------------------------------------------------------|
|------------------------------------------------------------------|
|------------------------------------------------------------------|




 5/8
   |-------3-------|    |---3---|
   E  E    s      +s    E  E    E      +E
|-19p14----------------19p14---14-----(14)--|
|---------17b18==(18)r---------17b19==(19)r-|
|-------------------------------------------|
|-------------------------------------------|
|-------------------------------------------|
|-------------------------------------------|



 4/4
                                                |--3--|
   s      +s    e  s      +s    e  s      +s    s  s  s  s      +s    s  s
|--------------14--------------14--------------14-14-14--------------14-14----|
|-17b19==(19)r----17b19==(19)r----17b19==(19)r----------17b19==(19)r----------|
|-----------------------------------------------------------------------------|
|-----------------------------------------------------------------------------|
|-----------------------------------------------------------------------------|
|-----------------------------------------------------------------------------|





   s      +s    e  s      +s    e  s      +s    e  s      +s    e
|--------------15--------------15--------------15--------------15-|
|-18b20==(20)r----18b20==(20)r----18b20==(20)r----18b20==(20)r----|
|-----------------------------------------------------------------|
|-----------------------------------------------------------------|
|-----------------------------------------------------------------|
|-----------------------------------------------------------------|



   s      +s    e  s      +s    e  s      +s    e  s      +s    e
|--------------17--------------17--------------18--------------18-|
|-20b22==(22)r----20b22==(22)r----21b23==(23)r----21b23==(23)r----|
|-----------------------------------------------------------------|
|-----------------------------------------------------------------|
|-----------------------------------------------------------------|
|-----------------------------------------------------------------|





 5/8                                      4/4
                                   ~~~~~~~~~~~~~~~~~~~~~~~~~
   s      +s    e  s      +s    e  e        +h         +h
|--------------19--------------19-22b24==|=(24)-------(24)r---------|
|-22b24==(24)r----22b24==(24)r-----------|--------------------------|
|----------------------------------------|--------------------------|
|----------------------------------------|--------------------------|
|----------------------------------------|--------------------------|
|----------------------------------------|--------------------------|
|
|-|                                          pm-----------------|
|  E            E  E            E  E         E  E E E   E   E E E
|----------------------------------------|--------------------------|
|----------------------------------------|--------------------------|
|----------------------------------------|---4--4-4-4---4---4-4-4---|
|---------------4---------------4--------|---4--4-4-4---4---4-4-4---|
|---------------0h=2------------0h=2-----|---2--2-2-2---2---2-2-2---|
|--2-------------------------------------|--------------------------|


    gtrs ii, iii
    pm--------------------------------------------------------------|
    E E E E E E E E   E E E E E E E E   E E E E E E E E   E E E E E E q
||------------------|-----------------|-----------------|------------------||
||o-----------------|-----------------|-----------------|-----------------o||
||------------------|-----------------|-----------------|------------------||
||------3-----3-----|-3-----3---------|-----3-----3-----|-3-----3-----4----||
||o-----3-----3-----|-3-----3-----2-2-|-----3-----3-----|-3-----3-----2---o||
||--0-0-1-0-0-1-0-0-|-1-0-0-1-0-0-----|-0-0-1-0-0-1-0-0-|-1-0-0-1-0-0------||


  pm--------------------------------------|          pm---
  E E E E E E E E     E E E E E E E E   E E q  +q.   s s
|-----------------||------------------|------------------|
|-----------------||o-----------------|------------------|
|-----------------||------------------|------------------|
|-----------------||----------------2-|-4-5--------------|
|-2-2-2-2-2-2-2-2-||o---------2-3-5---|-----3--(3)---3-3-|
|-0-0-0-0-0-0-0-0-||--0-2-3-5---------|------------------|


 ---------------------------------|
  E E E E E E E E   E E E E E E E E
|-----------------|--------------------||
|-----------------|-------------------o||
|-----------------|--------------------||
|-----------------|--------------------||
|-3-2-3-5-3-2-----|-------------------o||
|-------------3-2-|-0-0-0-0-0-0-0-0----||


                                 pm------------------------------------|
  E E E E E E E E   E E q  +q.   s s   E E E E E E E E   E E E E E E E E
|-----------------|------------------|-----------------|-----------------|
|-----------------|------------------|-----------------|-----------------|
|---------------0-|-2-4--------------|-----------------|-----------------|
|-------------4-2-|-4-5-2--(2)---2-2-|-2-0-2-4-2-0-----|-----------------|
|---------2-3-5---|-----3--(3)---3-3-|-3-2-3-5-3-2-3-2-|-----------------|
|-0-2-3-5---------|------------------|-------------3-2-|-0-0-0-0-0-0-0-0-|


                                 pm------------------|           pm|
  E E E E E E E E   E E q  +q.   s s   E E E E E E E E   H.      E E
|-----------------|------------------|-----------------|-------------|
|-----------------|-----5--(5)-------|-----------------|-------------|
|---------------0-|-2-4-5--(5)-------|-----------------|-4-----------|
|-------------4-2-|-4-5-5--(5)-------|-----------------|-2-------5-5-|
|---------2-3-5---|-----3--(3)---3-3-|-3-2-3-5-3-2-----|-2-------3-3-|
|-0-2-3-5---------|------------------|-------------3-2-|-0-----------|


  pm-----------------------------------
  E E E E E E E E     E E E E E E E E
|-----------------||------------------|
|-----------------||o-----------------|
|-------2---------||------------------|
|-5-4-5---5-4-2-4-||------------------|
|-3-2-3-5-3-2-----||o-----2-----3-----|
|-------------3-2-||--0-1---0-1---0-1-|


                                     1.
 ---------------------------------|
  E E E E E E E E   E E E E E E E E   E E E E E E E E
|-----------------|-----------------|------------------||
|-----------------|-----------------|-----------------o||
|-----------------|-----------------|------------------||
|-----------------|-----------------|------------------||
|-4-----3-----2-2-|-----2-----3-----|-5s4---5s4---5s4-o||
|---0-1---0-1-----|-0-1---0-1---1-0-|-3s2-0-3s2-0-3s2--||


  2.
  E E E E E E E E   E E E E E E E E
|-----------------|-----------------|
|-----------------|-----------------|
|-----------------|-----------------|
|-----------------|-----------------|
|-5s4---5s4---5s4-|-5s4---5s4---5s4-|
|-3s2-0-3s2-0-3s2-|-3s2-0-3s2-0-3s2-|


   verse
                                                 d.s.s. al dbl. coda
                                                         5/8
    gtrs ii, iii
    pm----------------|                 pm----------------|
    E E E E E E E E   E E E E E E E E   E E E E E E E E   E E E E E   4x
||------------------|-----------------|-----------------|-------------||
||o-----------------|-----------------|-----------------|------------o||
||------------------|-----------------|-----------------|-------------||
||------------------|-----------------|-----------------|-------------||
||o-----------------|---5s7---8s7-5s7-|-----------------|---5s7-5s7--o||
||--0-0-0-0-0-0-0-0-|-0-3s5-0-6s5-3s5-|-0-0-0-0-0-0-0-0-|-0-3s5-3s5---||


   outro
    &&
   4/4                                                   5/8
    pm----------------|                 pm----------------|
    E E E E E E E E   E E E E E E E E   E E E E E E E E   E E E E E  4x
||------------------|-----------------|-----------------|------------||
||o-----------------|-----------------|-----------------|-----------o||
||------------------|-----------------|-----------------|------------||
||------------------|-----------------|-----------------|------------||
||o-----------------|---5s7---8s7-5s7-|-----------------|---5s7-5s7-o||
||--0-0-0-0-0-0-0-0-|-0-3s5-0-6s5-3s5-|-0-0-0-0-0-0-0-0-|-0-3s5-3s5--||


 4/4
  gtr iv            gtrs ii, iii
  q   q   q   q     E E E E E E E E   w          +w
|-----------------|-----------------|----------|--------|
|-----------------|-----------------|----------|--------|
|-----------------|-----------------|-4--------|-(4)----|
|-x\--x\--x\--x\--|-----------------|-2--------|-(2)----|
|-x\--x\--x\--x\--|-5s4---5s4---5s4-|-2--------|-(2)----|
|-x\--x\--x\--x\--|-3s2-0-3s2-0-3s2-|-0--------|-(0)----|


  +w           +w           +w
|------------|------------|--------*|
|------------|------------|--------*|
|-(4)--------|-(4)--------|-(4)----*|
|-(2)--------|-(2)--------|-(2)----*|
|-(2)--------|-(2)--------|-(2)----*|
|-(0)--------|-(0)--------|-(0)----*|
Comments