Metallica - Master Of Puppets Chords & Tabs

 

Master Of Puppets Chords & Tabs

Metallica Chords & Tabs

Version: 18 Type: Tab 0 ratings
1 star 2 stars 3 stars 4 stars 5 stars
comments

Master Of Puppets Tab

   
-------------------------------------------------------------------------------
			     Master of Puppets - Metallica
-------------------------------------------------------------------------------
Tabbed by: Tom Jackson
Email: teejackson@hotmail.com

Tuning: Standard

I would post all of the song, but there is a wide enough range of it to show
what to do. I post the solos cos i see people wanting them on other peoples 
"comments". This is my 2nd posted tab so i may have the wrong occasional note
so sorry, but its ny-on exactly right i think. Please "comment" on it.

e|-----------------------------0h2p0-----3----------------------------------|
a|------------0---------3------------3--------------3-------3---------------|
d|-------------------2-----2-----------2---------0-----0-------0------------|
g|------2---------0-----------------------------------------------2---------|
b|----2--------------------------------------3------------------------------|
E|--0-----------------------------------------------------------------------|

e|--------------------------------------------------------------0h2p0------3|
a|-------0-----------0-----------0--------------0---------3-----------3-----|
d|----2-----------2-----------2------------------------2-----2-----------2--|
g|-------------------------1-----------------2------0-----------------------|
b|-0--------0--2--------2-----------------2---------------------------------|
E|----------------------------------3--0------------------------------------|

e|--------------------------------------------------------------------------|
a|--------3-----3--------0--------0-----------0-----------0------------0----|
d|-----0-----0-----0-----------2-----------2-----------2------------2-------|
g|--------------------2------------------------------------------1----------|
b|-3------------------------0--------0--2--------0--2--------2--------------|
E|------------------------------------------------------------------------3-|

e|----19--15----17--14----------------17--14----15--12-------------15--12---|
a|-17--------17---------15---15-15-15--------15--------13--13-13-13-------13|
d|--------------------------------------------------------------------------|
g|--------------------------------------------------------------------------|
b|--------------------------------------------------------------------------|
E|--------------------------------------------------------------------------|
[ Tab from: http://www.guitartabs.cc/tabs/m/metallica/master_of_puppets_tab_ver_18.html ]
e|-14--12h14p12------------------------------------12--12b14---15-----------|
a|---------------16--13--12--13--13b15--13----16----------------------------|
d|--------------------------------------------------------------------------|
g|--------------------------------------------------------------------------|
b|--------------------------------------------------------------------------|
e|--------------------------------------------------------------------------|

e|------------14---15---14-15-17-15-14-19-15-12h15p12-----------------------|
a|-17~~~~~-17-----------------------------------------13~~~~-15b17b15b17b15-|
d|--------------------------------------------------------------------------|
g|--------------------------------------------------------------------------|
b|--------------------------------------------------------------------------|
E|--------------------------------------------------------------------------|

e|-15-14----15-14-----------------------------------------------------------|
a|-------12------12(15)12---------------------------------------------------|
d|------------------------12-14-14(16)14-(14)-(16)-(14)-13--12--------------|
g|------------------------------------------------------------14-14~~~---12-|
b|--------------------------------------------------------------------------|
e|--------------------------------------------------------------------------|

e|--------------------------------------------------------------15-12----14-|
a|---------------------------------------------------------12---------13----|
d|-12--14-12-11----14-12-11h12p11---------------------1112---12-------------|
g|--------------12----------------10-----9-1012101214-----------------------|
b|------------------------------------12------------------------------------|
E|--------------------------------------------------------------------------|

e|12h14p12---------------------------------12--12/14--15-|------------------|
a|---------16--13--12--13--13/15--13---16----------------|------------------|
d|-------------------------------------------------------|------------------|
g|-------------------------------------------------------|------------------|
b|-------------------------------------------------------|------------------|
e|-------------------------------------------------------|------------------|


| /  slide up
| \  slide down
| h  hammer-on
| p  pull-off
| ~  vibrato
| +  harmonic
| x  Mute note
===============================================================================
Comments