Metallica - Master Of Puppets Chords & Tabs

 

Master Of Puppets Chords & Tabs

Metallica Chords & Tabs

Version: 17 Type: Tab 0 ratings
1 star 2 stars 3 stars 4 stars 5 stars
comments

Master Of Puppets Tab

Metallica 
Added the leads now , so stop nagging in the comments.
Master of puppets
                                                 
E||------------------|------------------|-------------------|
B||------------------|------------------|-------------------|
G||------------------|------------------|--9----------------|
D||------------------|------------------|--9----------------|
A||------------------|------------------|--7----------------|
E||------------------|------------------|--0----------------|


                                                                      
---------------------|------------------||---------------------------|
------------5--------|------------------||---------------------------|
--7----6----5--------|------------------||*--------------------------|
--7----6----5--------|------------------||*--------------------------|
--5----4----3--------|------------------||---------7--------6--------|
---------------------|------------------||---0--0-----0--0-----0--0--|


                                                                            2x
---------------------|--------------------------|---------------------------||
------------5--------|--------------------------|---------------------------||
--7----6----5--------|--------------------------|--------------------------*||
--7----6----5--------|--------------------------|--------------------------*||
--5----4----3--------|--------------------------|---------------------------||
---------------------|--0--0--7--0--0--6--0--0--|--5--0--4--0--3--0--2--0---||


                                                                            
--------------------------|---------------------|--------------------------|
--------------------------|------------5--------|--------------------------|
--------------------------|--7----6----5--------|--------------------------|
--------------------------|--7----6----5--------|--------------------------|
--------7--------6--------|--5----4----3--------|--------------------------|
--0--0-----0--0-----0--0--|---------------------|--0--0--7--0--0--6--0--0--|


                                                        
--------------------------||---------------------------|
--------------------------||---------------------------|
--------------------------||*--------------------------|
--------------------------||*--------------------------|
--------------------------||---------2--------3--------|
--5--0--4--0--3--0--2--0--||---0--1-----0--1-----0--1--|


                                                      
--------------------------|--------------------------|
--------------------------|--------------------------|
--------------------------|--------------------------|
--------------------------|--------------------------|
--4--------3--------2--2--|--------2--------3--------|
-----0--1-----0--1--------|--0--1-----0--1-----1--0--|


                                                         
---------------------------||---------------------------|
---------------------------||---------------------------|
--------------------------*||*--------------------------|
--------------------------*||*--------------------------|
--5/-4-----5/-4-----5/-4---||---------2--------3--------|
--3/-2--0--3/-2--0--3/-2---||---0--1-----0--1-----0--1--|


                                                                                
--------------------------|--------------------------|-------------------------|
--------------------------|--------------------------|-------------------------|
--------------------------|--------------------------|--------------------4----|
--------------------------|--------------------------|--------------------4----|
--4--------3--------2--2--|--------2--------3--------|--4--------3--------2----|
-----0--1-----0--1--------|--0--1-----0--1-----0--1--|-----0--1-----0--1-------|


                                                      
--------------------------|--------------------------|
--------------------------|--------------------------|
--------------------------|--------------------------|
--------------------------|--------------------------|
--------2--------3--------|--4--------3--------2--2--|
--0--1-----0--1-----0--1--|-----0--1-----0--1--------|


                                                        
--------------------------|---------------------------||
--------------------------|---------------------------||
--------------------------|--------------------------*||
--------------------------|--------------------------*||
--------2--------3--------|--5/-4-----5/-4-----5/-4---||
--0--1-----0--1-----1--0--|--3/-2--0--3/-2--0--3/-2---||


                                                                  
--------------------------|-------------------|------------------|
--------------------------|-------------------|------------------|
--------------------------|-------------------|------------------|
--------------------------|--2----------------|------------------|
--5/-4-----5/-4-----5/-4--|--2----------------|------------------|
--3/-2--0--3/-2--0--3/-2--|--0----------------|------------------|


                                                        
|---------------------------|--------------------------|
|---------------------------|--------------------------|
|*--------------------------|--------------------------|
|*--------------------------|--------------------------|
|---------------------------|-----5--7-----8--7--5--7--|
|---0--0--0--0--0--0--0--0--|--0--3--5--0--6--5--3--5--|


                                                                          
--------------------------|------------------||--------------------------|
--------------------------|------------------||--------------------------|
--------------------------|-----------------*||--------------------------|
--------------------------|-----------------*||--------------------------|
--------------------------|-----5--7--5--7---||--------------------------|
--0--0--0--0--0--0--0--0--|--0--3--5--3--5---||--0--0--0--0--0--0--0--0--|


                                                                        
--------------------------|--------------------------|-----------------|
--------------------------|--------------------------|-----------------|
--------------------------|--------------------------|-----------------|
--------------------------|--------------------------|-----------------|
-----5--7-----8--7--5--7--|--------------------------|-----5--7--5--7--|
--0--3--5--0--6--5--3--5--|--0--0--0--0--0--0--0--0--|--0--3--5--3--5--|


                                                      
--------------------------|--------------------------|
--------------------------|--------------------------|
--------------------------|--------------------------|
--------------------------|--------------------------|
--------------------------|-----5--7-----8--7--5--7--|
--0--0--0--0--0--0--0--0--|--0--3--5--0--6--5--3--5--|


                                                                        
--------------------------|-----------------|--------------------------|
--------------------------|-----------------|--------------------------|
--------------------------|-----------------|--------------------------|
--------------------------|-----------------|--------------------------|
--------------------------|-----5--7--5--7--|--------------------------|
--0--0--0--0--0--0--0--0--|--0--3--5--3--5--|--0--0--0--0--0--0--0--0--|


                                                                        
--------------------------|--------------------------|-----------------|
--------------------------|--------------------------|-----------------|
--------------------------|--------------------------|-----------------|
--------------------------|--------------------------|-----------------|
-----5--7-----8--7--5--7--|--------------------------|-----5--7--5--7--|
--0--3--5--0--6--5--3--5--|--0--0--0--0--0--0--0--0--|--0--3--5--3--5--|


                                                      
--------------------------|--------------------------|
--------------------------|--------------------------|
--------------------------|--------------------------|
--------------------------|--------------------------|
--------------------------|-----5--7-----8--7--5--7--|
--0--0--0--0--0--0--0--0--|--0--3--5--0--6--5--3--5--|


                                                                        
--------------------------|-----------------|--------------------------|
--------------------------|-----------------|--------------------------|
--------------------------|-----------------|--------------------------|
--------------------------|-----------------|--------------------------|
--------------------------|-----5--7--5--7--|--------------------------|
--0--0--0--0--0--0--0--0--|--0--3--5--3--5--|--2--2--2--2--2--2--2--2--|


                                                                       
-------------------------|--------------------------|-----------------|
-------------------------|--------------------------|-----------------|
-------------------------|--------------------------|-----------------|
-----4--4----3--4--4--4--|--------------------------|-----4-----4-----|
-----0--2----3--2--0--2--|--------------------------|-----0h-2--0h-2--|
--2----------------------|--2--2--2--2--2--2--2--2--|--2--------------|


                                                                                
--------------------------|-------------------------|--------------------------|
--------------------------|-------------------------|--------------------------|
--------------------------|-------------------------|--------------------------|
--------------------------|-----4--4----3--4--4--4--|--------------------------|
--------------------------|-----0--2----3--2--0--2--|--------------------------|
--2--2--2--2--2--2--2--2--|--2----------------------|--2--2--2--2--2--2--2--2--|


                                                                      
-----------------|--------------------------|------------------------|
-----------------|--------------------------|------------------------|
-----------------|--4--4--4--4--4--4--4--4--|--9-----------7----9----|
-----4-----4-----|--4--4--4--4--4--4--4--4--|--9-----------7----9----|
-----0h-2--0h-2--|--2--2--2--2--2--2--2--2--|--7-----------5----7----|
--2--------------|--------------------------|--0--0--0--0------------|


                                                                              
--------------------------|-------------------------|------------------------|
--------------------------|-------------------------|------------------------|
--------------------------|-------------------------|--------------8---------|
--------9-----------------|--------------10----9----|--------------8----9----|
--7--9-----10--9--10~-----|--------------10----9----|--------------6----9----|
--------------------------|--8--8--8--8--8-----7----|--8--8--8--8-------7----|


                                                                              
------------------------|--------------------------|-------------------------|
------------------------|--------------------------|-------------------------|
--9-----------7----9----|--------------------------|-------------------------|
--9-----------7----9----|--------9-----------------|--------------10----9----|
--7-----------5----7----|--7--9-----10--9--10~-----|--------------10----9----|
--0--0--0--0------------|--------------------------|--8--8--8--8--8-----7----|


                                                                             
------------------------|------------------------|--------------------------|
------------------------|------------------------|--------------------------|
--------------8---------|--9-----------7----9----|--------------------------|
--------------8----9----|--9-----------7----9----|--------9-----------------|
--------------6----9----|--7-----------5----7----|--7--9-----10--9--10~-----|
--8--8--8--8-------7----|--0--0--0--0------------|--------------------------|


                                                                            
-------------------------|------------------------|------------------------|
-------------------------|------------------------|------------------------|
-------------------------|--------------8---------|--9-----------7----9----|
--------------10----9----|--------------8----9----|--9-----------7----9----|
--------------10----9----|--------------6----9----|--7-----------5----7----|
--8--8--8--8--8-----7----|--8--8--8--8-------7----|--0--0--0--0------------|


                                                                              
--------------------------|-------------------------|------------------------|
--------------------------|-------------------------|------------------------|
--------------------------|-------------------------|------------------------|
--------9-----------------|--------------10----9----|--7--5--4----4----------|
--7--9-----10--9--10~-----|--------------10----9----|--9--7--6----6--7--5----|
--------------------------|--8--8--8--8--8-----7----|----------------8--7----|


                                                                                
--------------------|--------------------|----------------------|--------------|
--------------------|--------------------|----------------------|--------------|
--4----4------------|--2----2------------|--4-------------------|--------------|
--2----2------------|--3----3------------|--2-------------------|--------------|
--2----2------------|--3----3------------|--2-------------------|--------------|
--0----0------------|--1----1------------|--0----------0--0--0--|--2h-0--0--0--|


                                                                             
-------------------|------------------|----------------------|--------------|
-------------------|------------------|----------------------|--------------|
--5----------------|------------------|--5-------------------|--------------|
--5----------------|------------------|--5-------------------|--4-----------|
--5----------------|------------------|--3----------0--0--0--|--2--0--0--0--|
--3----------------|------------------|----------------------|--------------|


                                                                             
-------------------|------------------|--2-------------------|--------------|
-------------------|------------------|--3-------------------|--------------|
--2----------------|------------------|--2-------------------|--------------|
--2----------------|------------------|--0-------------------|--5-----------|
--0----------------|------------------|----------------------|--3-----------|
-------------------|------------------|-------------3--3--3--|-----3--3--3--|


                                                                             
-------------------|----------------------|-------------|-------------------|
-------------------|----------------------|-------------|--5----------------|
--4----------------|--9-------------------|--7----------|--5----------------|
--4----------------|--9-------------------|--7----------|--5----------------|
--2----------------|--7-------------------|--5----------|--3----------------|
-------------------|--0----------0--0--0--|-------0--0--|-------------------|


                                                                            
----------|--------------------|--------------------|----------------------|
----------|--------------------|--------------------|----------------------|
----------|--4----4------------|--2----2------------|--4-------------------|
----------|--2----2------------|--3----3------------|--2-------------------|
----------|--2----2------------|--3----3------------|--2-------------------|
----------|--0----0------------|--1----1------------|--0----------0--0--0--|


                                                                           
--------------|-------------------|------------------|--------------------|
--------------|--5----------------|------------------|--------------------|
--------------|--5----------------|------------------|--4----4------------|
--------------|--5----------------|------------------|--2----2------------|
--------------|--3----------------|------------------|--2----2------------|
--2h-0--0--0--|-------------------|------------------|--0----0------------|


                                                                             
--------------------||---------------------------|--------------------------|
--------------------||---------------------------|--------------------------|
--2----2------------||*--------------------------|--------------------------|
--3----3------------||*--------------------------|--------------------------|
--3----3------------||---------2--------3--------|--4--------3--------2--2--|
--1----1------------||---0--1-----0--1-----0--1--|-----0--1-----0--1--------|


                                                       
--------------------------|--------------------------||
--------------------------|--------------------------||
--------------------------|--------------------4----*||
--------------------------|--------------------4----*||
--------2--------3--------|--4--------3--------2-----||
--0--1-----0--1-----0--1--|-----0--1-----0--1--------||


                                                      
--------------------------|--------------------------|
--------------------------|--------------------------|
--------------------------|--------------------------|
--------------------------|--------------------------|
--5/-4-----5/-4-----5/-4--|--5/-4-----5/-4-----5/-4--|
--3/-2--0--3/-2--0--3/-2--|--3/-2--0--3/-2--0--3/-2--|


                                                      
--------------------------|--------------------------|
--------------------------|--------------------------|
--------------------------|--------------------------|
--------------------------|--------------------------|
--------------------------|-----5--7-----8--7--5--7--|
--0--0--0--0--0--0--0--0--|--0--3--5--0--6--5--3--5--|


                                                                        
--------------------------|-----------------|--------------------------|
--------------------------|-----------------|--------------------------|
--------------------------|-----------------|--------------------------|
--------------------------|-----------------|--------------------------|
--------------------------|-----5--7--5--7--|--------------------------|
--0--0--0--0--0--0--0--0--|--0--3--5--3--5--|--0--0--0--0--0--0--0--0--|


                                                                        
--------------------------|--------------------------|-----------------|
--------------------------|--------------------------|-----------------|
--------------------------|--------------------------|-----------------|
--------------------------|--------------------------|-----------------|
-----5--7-----8--7--5--7--|--------------------------|-----5--7--5--7--|
--0--3--5--0--6--5--3--5--|--0--0--0--0--0--0--0--0--|--0--3--5--3--5--|


                                                      
--------------------------|--------------------------|
--------------------------|--------------------------|
--------------------------|--------------------------|
--------------------------|--------------------------|
--------------------------|-----5--7-----8--7--5--7--|
--0--0--0--0--0--0--0--0--|--0--3--5--0--6--5--3--5--|


                                                                        
--------------------------|-----------------|--------------------------|
--------------------------|-----------------|--------------------------|
--------------------------|-----------------|--------------------------|
--------------------------|-----------------|--------------------------|
--------------------------|-----5--7--5--7--|--------------------------|
--0--0--0--0--0--0--0--0--|--0--3--5--3--5--|--0--0--0--0--0--0--0--0--|


                                                                        
--------------------------|--------------------------|-----------------|
--------------------------|--------------------------|-----------------|
--------------------------|--------------------------|-----------------|
--------------------------|--------------------------|-----------------|
-----5--7-----8--7--5--7--|--------------------------|-----5--7--5--7--|
--0--3--5--0--6--5--3--5--|--0--0--0--0--0--0--0--0--|--0--3--5--3--5--|


                                                                                
--------------------------|-------------------------|--------------------------|
--------------------------|-------------------------|--------------------------|
--------------------------|-------------------------|--------------------------|
--------------------------|-----4--4----3--4--4--4--|--------------------------|
--------------------------|-----0--2----3--2--0--2--|--------------------------|
--2--2--2--2--2--2--2--2--|--2----------------------|--2--2--2--2--2--2--2--2--|


                                                                       
-----------------|--------------------------|-------------------------|
-----------------|--------------------------|-------------------------|
-----------------|--------------------------|-------------------------|
-----4-----4-----|--------------------------|-----4--4----3--4--4--4--|
-----0h-2--0h-2--|--------------------------|-----0--2----3--2--0--2--|
--2--------------|--2--2--2--2--2--2--2--2--|--2----------------------|


                                                                        
--------------------------|-----------------|--------------------------|
--------------------------|-----------------|--------------------------|
--------------------------|-----------------|--4--4--4--4--4--4--4--4--|
--------------------------|-----4-----4-----|--4--4--4--4--4--4--4--4--|
--------------------------|-----0h-2--0h-2--|--2--2--2--2--2--2--2--2--|
--2--2--2--2--2--2--2--2--|--2--------------|--------------------------|


                                                                              
------------------------|--------------------------|-------------------------|
------------------------|--------------------------|-------------------------|
--9-----------7----9----|--------------------------|-------------------------|
--9-----------7----9----|--------9-----------------|--------------10----9----|
--7-----------5----7----|--7--9-----10--9--10~-----|--------------10----9----|
--0--0--0--0------------|--------------------------|--8--8--8--8--8-----7----|


                                                                             
------------------------|------------------------|--------------------------|
------------------------|------------------------|--------------------------|
--------------8---------|--9-----------7----9----|--------------------------|
--------------8----9----|--9-----------7----9----|--------9-----------------|
--------------6----9----|--7-----------5----7----|--7--9-----10--9--10~-----|
--8--8--8--8-------7----|--0--0--0--0------------|--------------------------|


                                                                            
-------------------------|------------------------|------------------------|
-------------------------|------------------------|------------------------|
-------------------------|--------------8---------|--9-----------7----9----|
--------------10----9----|--------------8----9----|--9-----------7----9----|
--------------10----9----|--------------6----9----|--7-----------5----7----|
--8--8--8--8--8-----7----|--8--8--8--8-------7----|--0--0--0--0------------|


                                                                              
--------------------------|-------------------------|------------------------|
--------------------------|-------------------------|------------------------|
--------------------------|-------------------------|--------------8---------|
--------9-----------------|--------------10----9----|--------------8----9----|
--7--9-----10--9--10~-----|--------------10----9----|--------------6----9----|
--------------------------|--8--8--8--8--8-----7----|--8--8--8--8-------7----|


                                                                              
------------------------|--------------------------|-------------------------|
------------------------|--------------------------|-------------------------|
--9-----------7----9----|--------------------------|-------------------------|
--9-----------7----9----|--------9-----------------|--------------10----9----|
--7-----------5----7----|--7--9-----10--9--10~-----|--------------10----9----|
--0--0--0--0------------|--------------------------|--8--8--8--8--8-----7----|


                                                                   
------------------------|--------------------|--------------------|
------------------------|--------------------|--------------------|
------------------------|--4----4------------|--2----2------------|
--7--5--4----4----------|--2----2------------|--3----3------------|
--9--7--6----6--7--5----|--2----2------------|--3----3------------|
----------------8--7----|--0----0------------|--1----1------------|


                                                                             
----------------------|--------------|-------------------|------------------|
----------------------|--------------|-------------------|------------------|
--4-------------------|--------------|--5----------------|------------------|
--2-------------------|--------------|--5----------------|------------------|
--2-------------------|--------------|--5----------------|------------------|
--0----------0--0--0--|--2h-0--0--0--|--3----------------|------------------|


                                                                             
----------------------|--------------|-------------------|------------------|
----------------------|--------------|-------------------|------------------|
--5-------------------|--------------|--2----------------|------------------|
--5-------------------|--4-----------|--2----------------|------------------|
--3----------0--0--0--|--2--0--0--0--|--0----------------|------------------|
----------------------|--------------|-------------------|------------------|


                                                          
--2-------------------|--------------|-------------------|
--3-------------------|--------------|-------------------|
--2-------------------|--------------|--4----------------|
--0-------------------|--5-----------|--4----------------|
----------------------|--3-----------|--2----------------|
-------------3--3--3--|-----3--3--3--|-------------------|


                                                                    
----------------------|-------------|-------------------|----------|
----------------------|-------------|--5----------------|----------|
--9-------------------|--7----------|--5----------------|----------|
--9-------------------|--7----------|--5----------------|----------|
--7-------------------|--5----------|--3----------------|----------|
--0----------0--0--0--|-------0--0--|-------------------|----------|


                                                                                
--------------------|--------------------|----------------------|--------------|
--------------------|--------------------|----------------------|--------------|
--4----4------------|--2----2------------|--4-------------------|--------------|
--2----2------------|--3----3------------|--2-------------------|--------------|
--2----2------------|--3----3------------|--2-------------------|--------------|
--0----0------------|--1----1------------|--0----------0--0--0--|--2h-0--0--0--|


                                                            
-------------------|------------------|--------------------|
--5----------------|------------------|--------------------|
--5----------------|------------------|--4----4------------|
--5----------------|------------------|--2----2------------|
--3----------------|------------------|--2----2------------|
-------------------|------------------|--0----0------------|


                                                                          
--------------------|------------------|------------------|--------------|
--------------------|------------------|------------------|--------------|
--2----2------------|------------------|------------------|-----------0--|
--3----3------------|------------------|------------------|--------2-----|
--3----3------------|------------------|------------------|-----2--------|
--1----1------------|------------------|------------------|--0-----------|


                                                         
--------------0-2-0-------3--|--------------------------|
--------3-----------3--------|--------3-----3--------0--|
-----2-----2-----------2h-0--|-----0-----0-----0--------|
--0--------------------------|--------------------2-----|
-----------------------------|--3-----------------------|
-----------------------------|--------------------------|


                                                         
--------------------------|--------------|--------------|
--------0-----------0-----|--------0-----|--------------|
-----2-----------2--------|-----2--------|-----------0--|
--------------------------|--1-----------|--------2-----|
--0--------0--2--------2--|--------------|-----2--------|
--------------------------|-----------3--|--0-----------|


                                                         
--------------0-2-0-------3--|--------------------------|
--------3-----------3--------|--------3-----3--------0--|
-----2-----2-----------2h-0--|-----0-----0-----0--------|
--0--------------------------|--------------------2-----|
-----------------------------|--3-----------------------|
-----------------------------|--------------------------|


                                                           
--------------------------|--------------||---------------|
--------0-----------0-----|--------0-----||---------------|
-----2-----------2--------|-----2--------||*-----------0--|
--------------------------|--1-----------||*--------2-----|
--0--------0--2--------2--|--------------||------2--------|
--------------------------|-----------3--||---0-----------|


                                                         
--------------0-2-0-------3--|--------------------------|
--------3-----------3--------|--------3-----3--------0--|
-----2-----2-----------2h-0--|-----0-----0-----0--------|
--0--------------------------|--------------------2-----|
-----------------------------|--3-----------------------|
-----------------------------|--------------------------|


                                                           
--------------------------|---------------||--------------|
--------0-----------0-----|--------0------||--------------|
-----2-----------2--------|-----2--------*||-----------0--|
--------------------------|--1-----------*||--------2-----|
--0--------0--2--------2--|---------------||-----2--------|
--------------------------|-----------3---||--0-----------|


                                                         
--------------0-2-0-------3--|--------------------------|
--------3-----------3--------|--------3-----3--------0--|
-----2-----2-----------2h-0--|-----0-----0-----0--------|
--0--------------------------|--------------------2-----|
-----------------------------|--3-----------------------|
-----------------------------|--------------------------|


                                                         
--------------------------|--------------|--------------|
--------0-----------0-----|--------0-----|--------------|
-----2-----------2--------|-----2--------|-----------0--|
--------------------------|--1-----------|--------2-----|
--0--------0--2--------2--|--------------|-----2--------|
--------------------------|-----------3--|--0-----------|


                                                         
--------------0-2-0-------3--|--------------------------|
--------3-----------3--------|--------3-----3--------0--|
-----2-----2-----------2h-0--|-----0-----0-----0--------|
--0--------------------------|--------------------2-----|
-----------------------------|--3-----------------------|
-----------------------------|--------------------------|


                                                           
--------------------------|--------------||---------------|
--------0-----------0-----|--------0-----||---------------|
-----2-----------2--------|-----2--------||*-----------0--|
--------------------------|--1-----------||*--------2-----|
--0--------0--2--------2--|--------------||------2--------|
--------------------------|-----------3--||---0-----------|


                                                         
--------------0-2-0-------3--|--------------------------|
--------3-----------3--------|--------3-----3--------0--|
-----2-----2-----------2h-0--|-----0-----0-----0--------|
--0--------------------------|--------------------2-----|
-----------------------------|--3-----------------------|
-----------------------------|--------------------------|


                                                            
--------------------------|---------------||---------------|
--------0-----------0-----|--------0------||---------------|
-----2-----------2--------|-----2--------*||*-----------0--|
--------------------------|--1-----------*||*--------2-----|
--0--------0--2--------2--|---------------||------2--------|
--------------------------|-----------3---||---0-----------|


                                                         
--------------0-2-0-------3--|--------------------------|
--------3-----------3--------|--------3-----3--------0--|
-----2-----2-----------2h-0--|-----0-----0-----0--------|
--0--------------------------|--------------------2-----|
-----------------------------|--3-----------------------|
-----------------------------|--------------------------|


                                                                       
--------------------------|---------------||--------------------------|
--------0-----------0-----|--------0------||--------------------------|
-----2-----------2--------|-----2--------*||--4--4--4--4--4--4--4--4--|
--------------------------|--1-----------*||--2--2--2--2--2--2--2--2--|
--0--------0--2--------2--|---------------||--2--2--2--2--2--2--2--2--|
--------------------------|-----------3---||--0--0--0--0--0--0--0--0--|

[ Tab from: http://www.guitartabs.cc/tabs/m/metallica/master_of_puppets_tab_ver_17.html ]
                                                       
--------------------------|---------------------------|
--------------------------|---------------------------|
--4--4--4--4--4--4--4--4--|---------------------------|
--2--2--2--2--2--2--2--2--|---------------------------|
--2--2--2--2--2--2--2--2--|--4--4--5--4--4--4--5--4-4-|
--0--0--0--0--0--0--0--0--|--2--2--3--2--2--2--3------|


                                                       
--------------------------|---------------------------|
--------------------------|---------------------------|
--------------------------|---------------------------|
-----------------------6--|---------------------------|
--4--4--5--4--4--4--5--4--|--4--4--5--4--4--4--5--4-4-|
--2--2--3--2--2--2--3-----|--2--2--3--2--2--2--3------|


                                                       
--------------------------|---------------------------|
--------------------------|---------------------------|
--------------------------|---------------------------|
-----------------------6--|---------------------------|
--4--4--5--4--4--4--5--4--|--4--4--5--4--4--4--5--4-4-|
--2--2--3--2--2--2--3-----|--2--2--3--2--2--2--3------|


                                                       
--------------------------|---------------------------|
--------------------------|---------------------------|
--------------------------|---------------------------|
-----------------------6--|---------------------------|
--4--4--5--4--4--4--5--4--|--4--4--5--4--4--4--5--4-4-|
--2--2--3--2--2--2--3-----|--2--2--3--2--2--2--3------|


                                                       
--------------------------|---------------------------|
--------------------------|---------------------------|
--------------------------|---------------------------|
-----------------------6--|---------------------------|
--4--4--5--4--4--4--5--4--|--4--4--5--4--4--4--5--4-4-|
--2--2--3--2--2--2--3-----|--2--2--3--2--2--2--3------|


                                                       
--------------------------|---------------------------|
--------------------------|---------------------------|
--------------------------|---------------------------|
-----------------------6--|---------------------------|
--4--4--5--4--4--4--5--4--|--4--4--5--4--4--4--5--4-4-|
--2--2--3--2--2--2--3-----|--2--2--3--2--2--2--3------|


                                                                  
--------------------------|-------------------|------------------|
--------------------------|-------------------|------------------|
--------------------------|--4----------------|------------------|
-----------------------6--|--5----------------|------------------|
--4--4--5--4--4--4--5--4--|--5----------------|------------------|
--2--2--3--2--2--2--3-----|--3----------------|------------------|


                                                       
-------------------|----------------------------------|
-------------------|----------------------------------|
--3----------------|----------------------------------|
--4----------------|----------------------------------|
--4----------------|--x-x-x-x-x-x-x-x-x-x-x-x-x-x-x-x-|
--2----------------|--x-x-x-x-x-x-x-x-x-x-x-x-x-x-x-x-|


                                                      
--------------------------|--------------------------|
--------------------------|--------------------------|
--------------------------|--------------------------|
--------------------------|--------------------------|
--------------------------|-----5--7-----8--7--5--7--|
--0--0--0--0--0--0--0--0--|--0--3--5--0--6--5--3--5--|


                                                                        
--------------------------|-----------------|--------------------------|
--------------------------|-----------------|--------------------------|
--------------------------|-----------------|--------------------------|
--------------------------|-----------------|--------------------------|
--------------------------|-----5--7--5--7--|--------------------------|
--0--0--0--0--0--0--0--0--|--0--3--5--3--5--|--0--0--0--0--0--0--0--0--|


                                                                        
--------------------------|--------------------------|-----------------|
--------------------------|--------------------------|-----------------|
--------------------------|--------------------------|-----------------|
--------------------------|--------------------------|-----------------|
-----5--7-----8--7--5--7--|--------------------------|-----5--7--5--7--|
--0--3--5--0--6--5--3--5--|--0--0--0--0--0--0--0--0--|--0--3--5--3--5--|


                                                      
--------------------------|--------------------------|
--------------------------|--------------------------|
--------------------------|--------------------------|
--------------------------|--------------------------|
--------------------------|-----5--7-----8--7--5--7--|
--0--0--0--0--0--0--0--0--|--0--3--5--0--6--5--3--5--|


                                                                        
--------------------------|-----------------|--------------------------|
--------------------------|-----------------|--------------------------|
--------------------------|-----------------|--------------------------|
--------------------------|-----------------|--------------------------|
--------------------------|-----5--7--5--7--|--------------------------|
--0--0--0--0--0--0--0--0--|--0--3--5--3--5--|--0--0--0--0--0--0--0--0--|


                                                                        
--------------------------|--------------------------|-----------------|
--------------------------|--------------------------|-----------------|
--------------------------|--------------------------|-----------------|
--------------------------|--------------------------|-----------------|
-----5--7-----8--7--5--7--|--------------------------|-----5--7--5--7--|
--0--3--5--0--6--5--3--5--|--0--0--0--0--0--0--0--0--|--0--3--5--3--5--|


                                                                                
--------------------------|-------------------------|--------------------------|
--------------------------|-------------------------|--------------------------|
--------------------------|-------------------------|--------------------------|
--------------------------|-----4--4----3--4--4--4--|--------------------------|
--------------------------|-----0--2----3--2--0--2--|--------------------------|
--2--2--2--2--2--2--2--2--|--2----------------------|--2--2--2--2--2--2--2--2--|


                                                                       
-----------------|--------------------------|-------------------------|
-----------------|--------------------------|-------------------------|
-----------------|--------------------------|-------------------------|
-----4-----4-----|--------------------------|-----4--4----3--4--4--4--|
-----0h-2--0h-2--|--------------------------|-----0--2----3--2--0--2--|
--2--------------|--2--2--2--2--2--2--2--2--|--2----------------------|


                                                                        
--------------------------|-----------------|--------------------------|
--------------------------|-----------------|--------------------------|
--------------------------|-----------------|--4--4--4--4--4--4--4--4--|
--------------------------|-----4-----4-----|--4--4--4--4--4--4--4--4--|
--------------------------|-----0h-2--0h-2--|--2--2--2--2--2--2--2--2--|
--2--2--2--2--2--2--2--2--|--2--------------|--------------------------|


                                                        
|---------------------------|--------------------------|
|---------------------------|--------------------------|
|*--------------------------|--------------------------|
|*--------3--------3--------|--3--------3--------------|
|---------3--------3--------|--3--------3--------2--2--|
|---0--0--1--0--0--1--0--0--|--1--0--0--1--0--0--------|


                                                       
--------------------------|--------------------------||
--------------------------|--------------------------||
--------------------------|--------------------4----*||
--------3--------3--------|--3--------3--------4----*||
--------3--------3--------|--3--------3--------2-----||
--0--0--1--0--0--1--0--0--|--1--0--0--1--0--0--------||


                                                                                
--------------------------||---------------------------|-----------------------|
--------------------------||---------------------------|-----------------------|
--------------------------||*--------------------------|-----------------------|
--------------------------||*-----------------------2--|--4--5-----------------|
--2--2--2--2--2--2--2--2--||---------------2--3--5-----|--------3----------3-3-|
--0--0--0--0--0--0--0--0--||---0--2--3--5--------------|-----------------------|


                                                         
--------------------------|----------------------------||
--------------------------|----------------------------||
--------------------------|---------------------------*||
--------------------------|---------------------------*||
--3--2--3--5--3--2--------|----------------------------||
--------------------3--2--|--0--0--0--0--0--0--0--0-0--||


                                                                              
--------------------------|-----------------------|--------------------------|
--------------------------|-----------------------|--------------------------|
--------------------------|--2--4-----------------|--------------------------|
--------------------4--2--|--4--5--2----------2-2-|--2--0--2--4--2--0--------|
--------------2--3--5-----|--------3----------3-3-|--3--2--3--5--3--2--3--2--|
--0--2--3--5--------------|-----------------------|--------------------3--2--|


                                                                               
---------------------------|--------------------------|-----------------------|
---------------------------|--------------------------|-----------------------|
---------------------------|--------------------------|--2--4--5--------------|
---------------------------|-----------------------2--|--4--5--5--------------|
---------------------------|--------------2--3--5-----|--------3----------3-3-|
--0--0--0--0--0--0--0--0-0-|--0--2--3--5--------------|-----------------------|


                                                                            
--------------------------|---------------------|--------------------------|
--------------------------|---------------------|--------------------------|
--------------------------|--4------------------|-----------2--------------|
--------------------------|--2--------------5-5-|--5--4--5-----5--4--2--4--|
--3--2--3--5--3--2--------|--2--------------3-3-|--3--2--3--5--3--2--------|
--------------------3--2--|--0------------------|--------------------3--2--|


                                                        
|---------------------------|--------------------------|
|---------------------------|--------------------------|
|*--------------------------|--------------------------|
|*--------------------------|--------------------------|
|---------2--------3--------|--4--------3--------2--2--|
|---0--1-----0--1-----0--1--|-----0--1-----0--1--------|


                                                        
--------------------------|---------------------------||
--------------------------|---------------------------||
--------------------------|--------------------------*||
--------------------------|--------------------------*||
--------2--------3--------|--5/-4-----5/-4-----5/-4---||
--0--1-----0--1-----1--0--|--3/-2--0--3/-2--0--3/-2---||


                                                      
--------------------------|--------------------------|
--------------------------|--------------------------|
--------------------------|--------------------------|
--------------------------|--------------------------|
--5/-4-----5/-4-----5/-4--|--5/-4-----5/-4-----5/-4--|
--3/-2--0--3/-2--0--3/-2--|--3/-2--0--3/-2--0--3/-2--|


                                                      
--------------------------|--------------------------|
--------------------------|--------------------------|
--------------------------|--------------------------|
--------------------------|--------------------------|
--------------------------|-----5--7-----8--7--5--7--|
--0--0--0--0--0--0--0--0--|--0--3--5--0--6--5--3--5--|


                                                                        
--------------------------|-----------------|--------------------------|
--------------------------|-----------------|--------------------------|
--------------------------|-----------------|--------------------------|
--------------------------|-----------------|--------------------------|
--------------------------|-----5--7--5--7--|--------------------------|
--0--0--0--0--0--0--0--0--|--0--3--5--3--5--|--0--0--0--0--0--0--0--0--|


                                                                        
--------------------------|--------------------------|-----------------|
--------------------------|--------------------------|-----------------|
--------------------------|--------------------------|-----------------|
--------------------------|--------------------------|-----------------|
-----5--7-----8--7--5--7--|--------------------------|-----5--7--5--7--|
--0--3--5--0--6--5--3--5--|--0--0--0--0--0--0--0--0--|--0--3--5--3--5--|


                                                      
--------------------------|--------------------------|
--------------------------|--------------------------|
--------------------------|--------------------------|
--------------------------|--------------------------|
--------------------------|-----5--7-----8--7--5--7--|
--0--0--0--0--0--0--0--0--|--0--3--5--0--6--5--3--5--|


                                                                        
--------------------------|-----------------|--------------------------|
--------------------------|-----------------|--------------------------|
--------------------------|-----------------|--------------------------|
--------------------------|-----------------|--------------------------|
--------------------------|-----5--7--5--7--|--------------------------|
--0--0--0--0--0--0--0--0--|--0--3--5--3--5--|--0--0--0--0--0--0--0--0--|


                                                                        
--------------------------|--------------------------|-----------------|
--------------------------|--------------------------|-----------------|
--------------------------|--------------------------|-----------------|
--------------------------|--------------------------|-----------------|
-----5--7-----8--7--5--7--|--------------------------|-----5--7--5--7--|
--0--3--5--0--6--5--3--5--|--0--0--0--0--0--0--0--0--|--0--3--5--3--5--|


                                                                                
--------------------------|-------------------------|--------------------------|
--------------------------|-------------------------|--------------------------|
--------------------------|-------------------------|--------------------------|
--------------------------|-----4--4----3--4--4--4--|--------------------------|
--------------------------|-----0--2----3--2--0--2--|--------------------------|
--2--2--2--2--2--2--2--2--|--2----------------------|--2--2--2--2--2--2--2--2--|


                                                                       
-----------------|--------------------------|-------------------------|
-----------------|--------------------------|-------------------------|
-----------------|--------------------------|-------------------------|
-----4-----4-----|--------------------------|-----4--4----3--4--4--4--|
-----0h-2--0h-2--|--------------------------|-----0--2----3--2--0--2--|
--2--------------|--2--2--2--2--2--2--2--2--|--2----------------------|


                                                                        
--------------------------|-----------------|--------------------------|
--------------------------|-----------------|--------------------------|
--------------------------|-----------------|--4--4--4--4--4--4--4--4--|
--------------------------|-----4-----4-----|--4--4--4--4--4--4--4--4--|
--------------------------|-----0h-2--0h-2--|--2--2--2--2--2--2--2--2--|
--2--2--2--2--2--2--2--2--|--2--------------|--------------------------|


                                                                              
------------------------|--------------------------|-------------------------|
------------------------|--------------------------|-------------------------|
--9-----------7----9----|--------------------------|-------------------------|
--9-----------7----9----|--------9-----------------|--------------10----9----|
--7-----------5----7----|--7--9-----10--9--10~-----|--------------10----9----|
--0--0--0--0------------|--------------------------|--8--8--8--8--8-----7----|


                                                                             
------------------------|------------------------|--------------------------|
------------------------|------------------------|--------------------------|
--------------8---------|--9-----------7----9----|--------------------------|
--------------8----9----|--9-----------7----9----|--------9-----------------|
--------------6----9----|--7-----------5----7----|--7--9-----10--9--10~-----|
--8--8--8--8-------7----|--0--0--0--0------------|--------------------------|


                                                                            
-------------------------|------------------------|------------------------|
-------------------------|------------------------|------------------------|
-------------------------|--------------8---------|--9-----------7----9----|
--------------10----9----|--------------8----9----|--9-----------7----9----|
--------------10----9----|--------------6----9----|--7-----------5----7----|
--8--8--8--8--8-----7----|--8--8--8--8-------7----|--0--0--0--0------------|


                                                                              
--------------------------|-------------------------|------------------------|
--------------------------|-------------------------|------------------------|
--------------------------|-------------------------|--------------8---------|
--------9-----------------|--------------10----9----|--------------8----9----|
--7--9-----10--9--10~-----|--------------10----9----|--------------6----9----|
--------------------------|--8--8--8--8--8-----7----|--8--8--8--8-------7----|


                                                                              
------------------------|--------------------------|-------------------------|
------------------------|--------------------------|-------------------------|
--9-----------7----9----|--------------------------|-------------------------|
--9-----------7----9----|--------9-----------------|--------------10----9----|
--7-----------5----7----|--7--9-----10--9--10~-----|--------------10----9----|
--0--0--0--0------------|--------------------------|--8--8--8--8--8-----7----|


                                                                   
------------------------|--------------------|--------------------|
------------------------|--------------------|--------------------|
------------------------|--4----4------------|--2----2------------|
--7--5--4----4----------|--2----2------------|--3----3------------|
--9--7--6----6--7--5----|--2----2------------|--3----3------------|
----------------8--7----|--0----0------------|--1----1------------|


                                                                             
----------------------|--------------|-------------------|------------------|
----------------------|--------------|-------------------|------------------|
--4-------------------|--------------|--5----------------|------------------|
--2-------------------|--------------|--5----------------|------------------|
--2-------------------|--------------|--5----------------|------------------|
--0----------0--0--0--|--2h-0--0--0--|--3----------------|------------------|


                                                                             
----------------------|--------------|-------------------|------------------|
----------------------|--------------|-------------------|------------------|
--5-------------------|--------------|--2----------------|------------------|
--5-------------------|--4-----------|--2----------------|------------------|
--3----------0--0--0--|--2--0--0--0--|--0----------------|------------------|
----------------------|--------------|-------------------|------------------|


                                                          
--2-------------------|--------------|-------------------|
--3-------------------|--------------|-------------------|
--2-------------------|--------------|--4----------------|
--0-------------------|--5-----------|--4----------------|
----------------------|--3-----------|--2----------------|
-------------3--3--3--|-----3--3--3--|-------------------|


                                                                    
----------------------|-------------|-------------------|----------|
----------------------|-------------|--5----------------|----------|
--9-------------------|--7----------|--5----------------|----------|
--9-------------------|--7----------|--5----------------|----------|
--7-------------------|--5----------|--3----------------|----------|
--0----------0--0--0--|-------0--0--|-------------------|----------|


                                                                                
--------------------|--------------------|----------------------|--------------|
--------------------|--------------------|----------------------|--------------|
--4----4------------|--2----2------------|--4-------------------|--------------|
--2----2------------|--3----3------------|--2-------------------|--------------|
--2----2------------|--3----3------------|--2-------------------|--------------|
--0----0------------|--1----1------------|--0----------0--0--0--|--2h-0--0--0--|


                                                            
-------------------|------------------|--------------------|
--5----------------|------------------|--------------------|
--5----------------|------------------|--4----4------------|
--5----------------|------------------|--2----2------------|
--3----------------|------------------|--2----2------------|
-------------------|------------------|--0----0------------|


                                                                             
--------------------||---------------------------|--------------------------|
--------------------||---------------------------|--------------------------|
--2----2------------||*--------------------------|--------------------------|
--3----3------------||*--------------------------|--------------------------|
--3----3------------||---------------------------|-----5--7-----8--7--5--7--|
--1----1------------||---0--0--0--0--0--0--0--0--|--0--3--5--0--6--5--3--5--|


                                                                  
--------------------------|------------------||------------------|
--------------------------|------------------||------------------|
--------------------------|-----------------*||------------------|
--------------------------|-----------------*||------------------|
--------------------------|-----5--7--5--7---||------------------|
--0--0--0--0--0--0--0--0--|--0--3--5--3--5---||------------------|


                                                
--------------------------|-------------------||
--------------------------|-------------------||
--------------------------|--4----------------||
--------------------------|--2----------------||
--5/-4-----5/-4-----5/-4--|--2----------------||
--3/-2--0--3/-2--0--3/-2--|--0----------------||


The LEAD kirky H.
////////////////////////////////////////////////////////////////////////

Part 1
|-------19--19------|--20--17----------------20--17------|
|---20------20--20--|--22--19--19--19-19-19--22--19--19--|
|*--21----------21--|----------19--19-19-19----------19--|
|*------------------|------------------------------------|
|-------------------|------------------------------------|
|-------------------|------------------------------------|


                                                                             
--19--15----------------19--15------|--17--15-17-15-14--------------14------|
--20--17--17--17-17-17--20--17--17--|--19--17-19-17-16--17--16--17------17--|
----------17--17-17-17----------17--|-------------------17--16--17--19--17--|
------------------------------------|---------------------------------------|
------------------------------------|---------------------------------------|
------------------------------------|---------------------------------------|


                                      
--14--15--17--19---||----------------|
--16--17--19--20---||--17------17-19-|
------------------*||----------------|
------------------*||----------------|
-------------------||----------------|
-------------------||----------------|


                                                                     
--15~--------15-17--15------19--15--12-15-12-|----------------------|
----------19------------19-------------------|--13~-------15b-------|
---------------------------------------------|----------------------|
---------------------------------------------|----------------------|
---------------------------------------------|----------------------|
---------------------------------------------|----------------------|


                                                                          
--15-14-----15-14---------------------|-------------------|--------------|
--------12--------12-15-12~-----------|--15r--------------|--------------|
-------------------------------12-14--|--14r-----12----12-|--------------|
--------------------------------------|-------------14----|--14~-----12--|
--------------------------------------|-------------------|--------------|
--------------------------------------|-------------------|--------------|


                                                                     
---------------------------------------|----------------------------|
---------------------------------------|----------------------------|
--12---14-12--11------14--12--11h12h11-|----------------------------|
------------------12-------------------|--10~--------9-10------9-10-|
---------------------------------------|----------12----------------|
---------------------------------------|----------------------------|


                                                                   
----------------------------------15--14--|--11h12h11---------19--|
--------------------------12--------------|-----------12--10------|
------------------11--12------12----------|-----------------------|
--12--10--12--14--------------------------|-----------------------|
------------------------------------------|-----------------------|
------------------------------------------|-----------------------|


                                                          
|-------19--19------|--20--17----------------20--17------|
|---20------20--20--|--22--19--19--19-19-19--22--19--19--|
|*--21----------21--|----------19--19-19-19----------19--|
|*------------------|------------------------------------|
|-------------------|------------------------------------|
|-------------------|------------------------------------|


                                                                             
--19--15----------------19--15------|--17--15-17-15-14--------------14------|
--20--17--17--17-17-17--20--17--17--|--19--17-19-17-16--17--16--17------17--|
----------17--17-17-17----------17--|-------------------17--16--17--19--17--|
------------------------------------|---------------------------------------|
------------------------------------|---------------------------------------|
------------------------------------|---------------------------------------|


                                                                       
--14--15--17--19---||
--16--17--19--20---||
------------------*||
------------------*||
-------------------||
-------------------||


Part 2

--17h-12--------------12--17--12--------------12--|
----------13--12--13--------------13--12--13------|
--------------------------------------------------|
--------------------------------------------------|
--------------------------------------------------|
--------------------------------------------------|


                                                   
--17--12--------------12--15--12--------------12--|
----------13--12--13--------------13--12--13------|
--------------------------------------------------|
--------------------------------------------------|
--------------------------------------------------|
--------------------------------------------------|


                                                   
--17--12--------------12--17--12--------------12--|
----------13--13--12--------------13--12--13------|
--------------------------------------------------|
--------------------------------------------------|
--------------------------------------------------|
--------------------------------------------------|


                                 
--17--12---------12-12-15h12----|
----------13--12-------------13-|
--------------------------------|
--------------------------------|
--------------------------------|
--------------------------------|


                                                   
------19--19--17-17-17-17-15--15--15--14-14-14-14-|
--17----------------------------------------------|
--------------------------------------------------|
--------------------------------------------------|
--------------------------------------------------|
--------------------------------------------------|


                                                 
--17--17--17--15-15-15-14-14-14-14-14-----------|
--------------------------------------15--15-17-|
------------------------------------------------|
------------------------------------------------|
------------------------------------------------|
------------------------------------------------|


                                                          
------------------------17-19-----|----------------------|
--17r-------17h-15h-14---------17-|--15h-14--------------|
----------------------------------|----------16--14------|
----------------------------------|----------------------|
----------------------------------|----------------------|
----------------------------------|----------------------|


                                                        
--19----19------19--19----|--------19--19----19--------|
--------------------------|----------------------------|
--------------------------|----------------------2--4--|
--------------------------|----------------------------|
--------------------------|----------------------------|
--------------------------|----------------------------|


                                                                             
--------------------------|--------------|----------------------------------|
--------------------------|--------------|--15--13--12------13--12----------|
--2b-4--3--2--2-----------|--------------|--------------14----------14--12--|
-----------------4--2-----|--2h-4--------|----------------------------------|
-----------------------2--|--------------|----------------------------------|
--------------------------|--------------|----------------------------------|


                                       
--------------------------------------|
--------------12----12-12-12--12--12--|
--11--12--14--------------------------|
--------------------------------------|
--------------------------------------|
--------------------------------------|


                                                   
--------------------------12----------12----------|
--12-15-13-12-15-13-12-13----15-15-13----15-15-15-|
--------------------------------------------------|
--------------------------------------------------|
--------------------------------------------------|
--------------------------------------------------|


                                 
--14-------14-------15-15-------|
-----17-15----15-17-------17/19-|
--------------------------------|
--------------------------------|
--------------------------------|
--------------------------------|


                                                   
--17-------19-17----------17----------19-17-------|
-----20-19--------19--19-----21-19-19-------19-19-|
--------------------------------------------------|
--------------------------------------------------|
--------------------------------------------------|
--------------------------------------------------|


                                                   
--17----------19-17-------17----------19-17-------|
-----21-19-19-------19-19----21-19-19-------19-19-|
--------------------------------------------------|
--------------------------------------------------|
--------------------------------------------------|
--------------------------------------------------|


                                                              
--14--14------14------------14--|--19--14------19--14--14----|
--17b-----17b-----17b---17b-----|----------17b---------17b---|
--------------------------------|----------------------------|
--------------------------------|----------------------------|
--------------------------------|----------------------------|
--------------------------------|----------------------------|


                                                                             
------14------14------14-14-14-----14-14-|------15------15------15------15--|
--17b-----17b-----17b----------17b-------|--18b-----18b-----18b-----18b-----|
-----------------------------------------|----------------------------------|
-----------------------------------------|----------------------------------|
-----------------------------------------|----------------------------------|
-----------------------------------------|----------------------------------|


                                                                               
------17------17------17------17--|------19------19--22b-|--22----------------|
--20b-----20b-----20b-----20b-----|--22b-----22b---------|--------------------|
----------------------------------|----------------------|--------------------|
----------------------------------|----------------------|--------------------|
----------------------------------|----------------------|--------------------|
----------------------------------|----------------------|--------------------|
Comments