Metallica - Master Of Puppets Full Solo Chords & Tabs

 

Master Of Puppets Full Solo Chords & Tabs

Metallica Chords & Tabs

Version: 1 Type: Tab 8 ratings
1 star 2 stars 3 stars 4 stars 5 stars
comments

Master Of Puppets Full Solo Tab

   
Posted By: Matt Cavanagh
This is the exact way that Kirk plays the solo.

HAVE FUN WITH THIS ONE!!!!

e|-17-12------------12-17-12------------12-17-12------------12--|
b|--------13-12-13------------13-12-13------------13-12-13------|
g|--------------------------------------------------------------|
D|--------------------------------------------------------------|
A|--------------------------------------------------------------|
E|--------------------------------------------------------------|


e|-15-12------------12-17-12------------12-17-12------------12--|
b|--------13-12-13------------13-12-13------------13-12-13------|
g|--------------------------------------------------------------|
D|--------------------------------------------------------------|
A|--------------------------------------------------------------|
E|--------------------------------------------------------------|


e|-17-12---------12-12-15-12-----------19-19-17-17-17-17-15-15-15-15--|
b|--------13-12---------------13--/17---------------------------------|
g|--------------------------------------------------------------------|
D|--------------------------------------------------------------------|
A|--------------------------------------------------------------------|
E|--------------------------------------------------------------------|


e|-14-14-14-14-17-17-17-17-15-15-15-15-14-14----------------------------|
b|--------------------------------------------15--15-17-17b19r17b19r17--|
g|----------------------------------------------------------------------|
D|----------------------------------------------------------------------|
A|----------------------------------------------------------------------|
E|----------------------------------------------------------------------|

                                              (whammy bar)
e|-----------17p15p14--------------------------------///--|
b|-17p15p14------------17p15p14---------------------/-------|
g|--------------------------------16-14~~------/--------|
D|---------------------------------------------//---------|
A|----------------------------------------------------------|
E|----------------------------------------------------------|


e|-----------------------------------|
b|-----------------------------------|
g|-2-4-(2)h4-4-3-2-------------------|
D|------------------4-2-----(2)h4~~--|
A|-----------------------2-----------|
E|-----------------------------------|


e|-10-8-7------8-7---------------7~--|
b|---------10-------10-8-7-8-10------|
g|-----------------------------------|
D|-----------------------------------|
A|-----------------------------------|
E|-----------------------------------|

[ Tab from: http://www.guitartabs.cc/tabs/m/metallica/master_of_puppets_full_solo_tab.html ]
e|-7-7-7-7-7-7--10-8-7-10-8-7--12-10-8-12-10-8--14-12-10-14-10-12--|
b|-----------------------------------------------------------------|
g|-----------------------------------------------------------------|
D|-----------------------------------------------------------------|
A|-----------------------------------------------------------------|
E|-----------------------------------------------------------------|


e|-15-15-12-14--17-16-14--19-17-14-14--17-16-14-14--19-17-14-14--|
b|---------------------------------------------------------------|
g|---------------------------------------------------------------|
D|---------------------------------------------------------------|
A|---------------------------------------------------------------|
E|---------------------------------------------------------------|


e|-17-16-14-14--19-17-14-14--17-16-14-14--19-17-14-14--|
b|-----------------------------------------------------|
g|-----------------------------------------------------|
D|-----------------------------------------------------|
A|-----------------------------------------------------|
E|-----------------------------------------------------|


e|-14-----14--14-----14--14~------------14-19p14---------19p14-14-----|
b|-17b19------17b19------17b19~--17b19------------17b19--------17b19--|
g|--------------------------------------------------------------------|
D|--------------------------------------------------------------------|
A|--------------------------------------------------------------------|
E|--------------------------------------------------------------------|


e|--------14---------14---------14---------14--|
b|-17b19------17b19------17b19------17b19------|
g|---------------------------------------------|
D|---------------------------------------------|
A|---------------------------------------------|
E|---------------------------------------------|


e|--------15---------15---------15---------15--|
b|-18b20------18b20------18b20------18b20------|
g|---------------------------------------------|
D|---------------------------------------------|
A|---------------------------------------------|
E|---------------------------------------------|


e|--------17---------17---------18---------18----------19---------19--|
b|-20b22------20b22------21b23------21b23-------22b24------22b24------|
g|--------------------------------------------------------------------|
D|--------------------------------------------------------------------|
A|--------------------------------------------------------------------|
E|--------------------------------------------------------------------|

         /(vigorous whammy bar dive)
e|-22b24/--/--------------------------------------|
b|------------/-----------------------------------|
g|---------------/--------------------------------|
D|------------------/-----------------------------|
A|---------------------/--------------------------|
E|------------------------/-----------------------|


~ = vibrato
b = bend
/ = slide up
 = slide down
// = whammy bar
p = pull off
h = hammer on
 = pinched harmonic
() = acciaccatura - grace note
Comments