Metallica - Master Of Puppets Chords & Tabs

 

Master Of Puppets Chords & Tabs

Metallica Chords & Tabs

Version: 4 Type: Bass Tab 0 ratings
1 star 2 stars 3 stars 4 stars 5 stars
comments

Master Of Puppets Bass Tab

   
song name-Master of puppets
Artist-Metallica
Bassist-Cliff Burton
Album-Master of puppets
Email-zell3@hotmail.com

INTRO
X4
G|-------------------------------------------------------------------------|
D|-------------------------------------------------------------------------|
A|---5-4-3-----------------------------------------------------------------|
E|-0-------r--0-0-r--------------------------------------------------------|


G|-------------------------------------------------------------------------|
D|-------------------------------------------------------------------------|
A|-------------------------------------------------------------------------|
E|-0-0-0-r-0-0-0-0-0-------------------------------------------------------|

INTRO 2
X5
G|-------------------------------------------------------------------------|
D|-------------------------------------------------------------------------|
A|---2---3---4----3---2-2----3-----4-----3-----2[ Tab from: http://www.guitartabs.cc/tabs/m/metallica/master_of_puppets_btab_ver_4.html ]
PRE CHORUS
X3
G|-------------------------------------------------------------------------|
D|--------------------------------------1----------------------------------|
A|-7-----5-7--------3-3-3-3-2-2-3-3-3-3---2--------------------------------|
E|---0-0-----0-2-3---------------------------------------------------------|


G|-------------------------------------------------------------------------|
D|-------------------------------------4-2-1-1-----------------------------|
A|-7-----5-7-------3-3-3-3-2-2-3-3-3-3---------3-2-------------------------|
E|---0-0-----0-2-3--------------------------------0-0-1-1------------------|

CHORUS

G|-------------------------------------------------------------------------|
D|-------------------------------------------------------------------------|
A|-----------------------------2-0-0-0-2-0-0-3-----------------------------|
E|-2-0-0-0-2-0-0-3-3-0-0-2-0-3----------------0-0-1-1--2-0-0-2-0--3-0-0-1-1|

CLASSICAL SOLO
X7
G|-------------------------------------------------------------------------|
D|---9-9-9-----------------------------------------------------------------|
A|-7-------7--5-5-5-5-5---5-5-5--3-3-3-3-3---3-2-2-2-0-2-6-6-6-0-6---------|
E|----------------------5------------------3-------------------------------|

BRIDGE

G|-------------------------------------------------------------------------|
D|-------------------------------------------------------------------------|
A|-------------------------------------------------------------------------|
E|-0-0-0-0-1-1-1-1-2-2-2-2-3-3-3-3-4-4-4-4-5-5-5-5-------------------------|


(MUTE BY PLACING THE INDEX FINGER LIGHTLY ON THE STRING)
G|-------------------------------------------------------------------------|
D|-------------------------------------------------------------------------|
A|-------------------------------------------------------------------------|
E|X-X-X-X-X-X-X-X-X-X-X-X-X-X-X-X-X-X-X-X-X-X-X-X-X-X-X-X-X-X-X-X-X-X-X-X-X|

THE REST OF THE SONG IS JUST REPEATS OF PARTS, YOU CAN WORK IT OUT
| /  slide up
| \  slide down
| h  hammer-on
| p  pull-off
| ~  vibrato
| +  harmonic
| x  Mute note
Comments