Metallica - Master Of Puppets Chords & Tabs

 

Master Of Puppets Chords & Tabs

Metallica Chords & Tabs

Version: 3 Type: Bass Tab 0 ratings
1 star 2 stars 3 stars 4 stars 5 stars
comments

Master Of Puppets Bass Tab

   
Canción: Master Of Puppets
Artista: MetallicA
Album: Master Of Puppets 
Esta TAB está hecha por: Maxi Cavia
Colaboración: Nikolas Medina

Intro:
------
G|-------------|------
D|-------------|------
A|------4-3-2--|------
E|-------------|-2-2--

A.1:
----
G|------
D|------
A|------
E|--3/2-

A.2:
----
G|--------------------------------
D|--------------------------------
A|-----2-----3-----4-----3-----2--
E|-0-1---0-1---0-1---0-1---0-1----

VERSO.1:
--------
G|--------------------------------
D|--------------------------------
A|----------------3/5-6-5-3-5-----
E|-0--0-0-0-0-0-0-----------------

G|--------------------------------
D|--------------------------------
A|----------------2-2-------------
E|-0--0-0-0-0-0-0-----------------

VERSO.2:
--------
G|--------------------------------
D|--------------------------------
A|----------------2-3-2-----------
E|-2--2-2-2-2-2-2-----------------
[ Tab from: http://www.guitartabs.cc/tabs/m/metallica/master_of_puppets_btab_ver_3.html ]
G|--------------------------------|----------
D|--------------------------------|----------
A|----------------2-2-------------|-3-3-3-3-3
E|-2--2-2-2-2-2-2-----------------|----------

PRE-CHORUS:
-----------
G|-------------------------------------------------
D|------------------9------------------------------
A|--3/7-------5-7----9-10---8-8-8-7-8--8-8-8-11-8--
E|-------0-0---------------------------------------

CHORUS.1:
---------
G|---------|-------|-------|-------|-------|
D|---------|-------|-------|-------|-------|
A|---------|-------|-3-2-0-|-5-3-2-|-7-5-3-|
E|-0-0-1-1-|-0-2-3-|-------|-------|-------|

CHORUS.2:
---------
G|---------|-------|---------
D|---------|-------|---------
A|---------|-------|---------
E|-0-0-1-1-|-0-2-3-|-0-0-1-1-


ESTRUTURA:
----------
Intro      x4
A.1        x4
A.1        x4
A.2        x2
A.1        x3
A.2        x2
A.1        x6
VERSO.1    x6
VERSO.2    x2
PRE-CHORUS x4
CHORUS.1   x1
CHORUS.2   x1    
A.2        x2
A.1        x6
VERSO.1    x4
VERSO.2    x2
PRE-CHORUS x4
CHORUS.1   x1
CHORUS.2   x1
Comments