Metallica - Master O Puppets Chords & Tabs

 

Master O Puppets Chords & Tabs

Metallica Chords & Tabs

Version: 1 Type: Tab 0 ratings
1 star 2 stars 3 stars 4 stars 5 stars
comments

Master O Puppets Tab

song:master o puppets
tabber:nolan, 13, USA

   this is the best i could get it so have fun and enjoy.
   
INTRO:
  
   e|-----------------|
   B|-----------------|
   G|--9-----7--6--5--|
   D|--9-----7--6--5--|
   A|--7-----5--4--3--|
   E|--0--------------|
                                                                        4x
   e|------------------------------|------------------------------------||
   B|o-----------------------------|-----------------------------------o||
   G|------------------7---6---5---|------------------------------------||
   D|------------------7---6---5---|------------------------------------||
   A|o-----7-----6-----5---4---3---|-----------------------------------o||
   E|--0-0---0-0---0-0-------------|--0-0-7-0-0-6-0-0-5-0-4-0-3-0-2-0---||
   PM  ...   ...   ...                ...............................
                                                                           2x
   e|----------------------------------|-----------------------------------||
   B|o---------------------------------|----------------------------------o||
   G|----------------------------------|-----------------------------------||
   D|----------------------------------|-----------------------------------||
   A|o-----2-----3-----4-----3-----2-2-|-----2-----3-----5\4---5\4---5\4--o||
   E|--0-1---0-1---0-1---0-1---0-1-----|-0-1---0-1---0-0-3\2-0-3\2-0-3\2---||
   PM  ...   ...   ...   ...   ...       ...   ...   ...

   e|----------------------------------|---------------------------------|
   B|o---------------------------------|---------------------------------|
   G|----------------------------------|-----------------------------4---|
   D|----------------------------------|-----------------------------4---|
   A|o-----2-----3-----4-----3-----2-2-|-----2-----3-----4-----3-----2---|
   E|--0-1---0-1---0-1---0-1---0-1-----|-0-1---0-1---0-1---0-1---0-1-----|
   PM  ...   ...   ...   ...   ...       ...   ...   ...   ...   ...
                                                                           2x
   e|----------------------------------|-----------------------------------||
   B|----------------------------------|----------------------------------o||
   G|----------------------------------|-----------------------------------||
   D|----------------------------------|-----------------------------------||
   A|------2-----3-----4-----3-----2-2-|-----2-----3-----5\4---5\4---5\4--o||
   E|--0-1---0-1---0-1---0-1---0-1-----|-0-1---0-1---0-0-3\2-0-3\2-0-3\2---||
   PM  ...   ...   ...   ...   ...       ...   ...   ...
 
   e|------------------|------------------------------------|
   B|------------------|------------------------------------|
   G|------------------|------------------------------------|
   D|------------------|------8-----8-----8-----8-----8~~---|
   A|--5\4---5\4---5\4-|----7-----7-----7-----7-----7-------|
   E|--3\2-0-3\2-0-3\2-|--0-----0-----0-----0-----0---------|
   PM                     ...   ...   ...   ...   ...
        
-----------------------------------------------------------------------------------------
                                                                     6x (Four times with vocal)
   e|---------------------------------|------------------------------||
   B|o--------------------------------|-----------------------------o||
   G|---------------------------------|------------------------------||
   D|---------------------------------|------------------------------||
   A|o-------------------5/7--8\7-5/7-|-------------------5/7--5/7--o||
   E|--0-0-0-0-0-0-0-0-0-3/5--6\5-3/5-|-0-0-0-0-0-0-0-0-0-3/5--3/5---||
   PM  .................                .................
                             ^^^^9 zeros^^^^
                                                                     2x
   e|---------------------------------|------------------------------||
   B|o--------------------------------|-----------------------------o||
   G|---------------------------------|------------------------------||
   D|--------------------4-4--5\4-4-4-|-------------------4----4-----||
   A|o-------------------0-2--3\2-0-2-|-------------------0h2--0h2--o||
   E|--2-2-2-2-2-2-2-2-2--------------|-2-2-2-2-2-2-2-2-2------------||
   PM  .................                .................
         ^^^^^^^^^^They’re 9 twos here.^^^^^^^^^^^^^^^^^^

   e|-------------------|
   B|-------------------|
   G|-------------------|
   D|--4-4-4-4-4-4-4-4--|
   A|--2-2-2-2-2-2-2-2--|
   E|-------------------|
   PM  ...............
             
-----------------------------------------------------------------------------------------
                                                                           3x
   e|--------------------------------|-------------------------------------||
   B|o-------------------------------|------------------------------------o||
   G|--9-------7---9-----------------|-----------------------------8-------||
   D|--9-------7---9------9----------|-----------10---9------------8---9---||
   A|o-7-------5---7--7-9---10-9h10--|-----------10---9------------6---9--o||
   E|--0-0-0-0-----------------------|---7-7-7-7-8----7----8-8-8-8-----7---||
   PM  .......        ...   .            .......           .......

   e|--------------------------------|-------------------------------------|
   B|--------------------------------|-------------------------------------|
   G|--9-------7---9-----------------|---Second guitar__-------------------|
   D|--9-------7---9------9----------|-----------10---9-|>>>7-5-4---4------|
   A|--7-------5---7--7-9---10-9h10--|-----------10---9-----9-7-6---6-7-6--|
   E|--0-0-0-0-----------------------|---7-7-7-7-8----7---------------8-7--|
   PM  .......        ...   .            .......

   These measures are a little special. There are different amounts of beats in almost each of them.
   e|------------|----------------------|----------------------|----------------------|
   B|------------|----------------------|----------------------|----------------------|
   G|------------|----------------------|--5-----------------2-|--7-----------------4-|
   D|--2-2---3-3-|--2-----------------5-|--5---------4-------2-|--7-----------------4-|
   A|--2-2---3-3-|--2-----------------5-|--3---0-0-0-2-0-0-0-0-|--5---------3-------2-|
   E|--0-0---1-1-|--0---0-0-0-2p0-0-0-3-|----------------------|------3-3-3---3-3-3---|
   PM  ...   ...        .....   .....          .....   .....          .....   .....

   e|----------------------|------------|-----------------------|--------------|
   B|----------------------|------------|-----------------------|--------------|
   G|--9-----------------5-|------------|--------------------5--|--------------|
   D|--9---------7-------5-|--2-2---3-3-|--2-----------------5--|--2-2---3-3---|
   A|--7---------5-------3-|--2-2---3-3-|--2-----------------3--|--2-2---3-3---|
   E|------0-0-0---0-0-0---|--0-0---1-1-|--0---0-0-0-2p0-0-0----|--0-0---1-1---|
   PM      .....   .....      ...   ...        .....   .....       ...   ...

-----------------------------------------------------------------------------------------

   e|----------------------------------|----------------------------------|
   B|----------------------------------|----------------------------------|
   G|----------------------------------|------------------------------4---|
   D|----------------------------------|------------------------------4---|
   A|------2-----3-----4-----3-----2-2-|------2-----3-----4-----3-----2---|
   E|--0-1---0-1---0-1---0-1---0-1-----|--0-1---0-1---0-1---0-1---0-1-----|
   PM  ...   ...   ...   ...   ...        ...   ...   ...   ...   ...
                                                                                2x
   e|----------------------------------|-------------------|--------------------||
   B|----------------------------------|-------------------|o------------------o||
   G|----------------------------------|-------------------|--------------------||
   D|----------------------------------|-------------------|--------------------||
   A|------2-----3-----4-----3-----2-2-|------2-----3------|o-5\4---5\4---5\4--o||
   E|--0-1---0-1---0-1---0-1---0-1-----|--0-1---0-1---0-0--|--3\2-0-3\2-0-3\2---||
   PM  ...   ...   ...   ...   ...        ...   ...   ...
        
-----------------------------------------------------------------------------------------
                                                                      4x
   e|---------------------------------|-------------------------------||
   B|o--------------------------------|------------------------------o||
   G|---------------------------------|-------------------------------||
   D|---------------------------------|-------------------------------||
   A|o-------------------5/7--8\7-5/7-|--------------------5/7--5/7--o||
   E|--0-0-0-0-0-0-0-0-0-3/5--6\5-3/5-|--0-0-0-0-0-0-0-0-0-3/5--3/5---||
   PM  .................                 .................
         ^^^^^^^^^^^^^^^^ Again 9 zeros ^^^^^^^^^^^^^^^^^^
                                                                      2x
   e|---------------------------------|-------------------------------||
   B|o--------------------------------|------------------------------o||
   G|---------------------------------|-------------------------------||
   D|--------------------4-4--5\4-4-4-|--------------------4----4-----||
   A|o-------------------0-2--3\2-0-2-|--------------------0h2--0h2--o||
   E|--2-2-2-2-2-2-2-2-2--------------|--2-2-2-2-2-2-2-2-2------------||
   PM  .................                 .................
         ^^^^^^^^^^^^^^^ And 9 twos here ^^^^^^^^^^^^^^^^^

   e|-------------------|
   B|-------------------|
   G|-------------------|
   D|--4-4-4-4-4-4-4-4--|
   A|--2-2-2-2-2-2-2-2--|
   E|-------------------|
   PM  ...............
   
-----------------------------------------------------------------------------------------

                                                                            3x
   e|--------------------------------|--------------------------------------||
   B|o-------------------------------|-------------------------------------o||
   G|--9-------7---9-----------------|-----------------------------8--------||
   D|--9-------7---9------9----------|-----------10---9------------8---9----||
   A|o-7-------5---7--7-9---10-9h10--|-----------10---9------------6---9---o||
   E|--0-0-0-0-----------------------|---7-7-7-7-8----7----8-8-8-8-----7----||
   PM  .......        ...   .            .......           .......

   e|--------------------------------|-------------------------------------|
   B|--------------------------------|-------------------------------------|
   G|--9-------7---9-----------------|---Second guitar__-------------------|
   D|--9-------7---9------9----------|-----------10---9-|>>>7-5-4---4------|
   A|--7-------5---7--7-9---10-9h10--|-----------10---9-----9-7-6---6-7-6--|
   E|--0-0-0-0-----------------------|---7-7-7-7-8----7---------------8-7--|
   PM  .......        ...   .            .......

   e|------------|----------------------|----------------------|----------------------|
   B|------------|----------------------|----------------------|----------------------|
   G|------------|----------------------|--5-----------------2-|--7-----------------4-|
   D|--2-2---3-3-|--2-----------------5-|--5---------4-------2-|--7-----------------4-|
   A|--2-2---3-3-|--2-----------------5-|--3---0-0-0-2-0-0-0-0-|--5---------3-------2-|
   E|--0-0---1-1-|--0---0-0-0-2p0-0-0-3-|----------------------|------3-3-3---3-3-3---|
   PM  ...   ...        .....   .....          .....   .....          .....   .....


   e|----------------------|------------|-----------------------|--------------|
   B|----------------------|------------|-----------------------|--------------|
   G|--9-----------------5-|------------|--------------------5--|--------------|
   D|--9---------7-------5-|--2-2---3-3-|--2-----------------5--|--2-2---3-3---|
   A|--7---------5-------3-|--2-2---3-3-|--2-----------------3--|--2-2---3-3---|
   E|------0-0-0---0-0-0---|--0-0---1-1-|--0---0-0-0-2p0-0-0----|--0-0---1-1---|
   PM      .....   .....      ...   ...        .....   .....       ...   ...
             
-----------------------------------------------------------------------------------------

   First guitar (clean): Play this by yourself two times, then guitar 2 and 3 comes in. 
                                                                                  10x
   e|-----------------|-0h2p0-------3--------|----------------|-------------------||
   B|o-------------3--|-------3-----------3--|-3-----0-----0--|-----0-------0----o||
   G|--------0---2---2|---------2p0-----0---0|---0-------2----|---2-------2-------||
   D|------2---0------|----------------------|-----2----------|---------1---------||
   A|o---2------------|---------------3------|---------0-----0|-2-----2----------o||
   E|--0--------------|----------------------|----------------|---------------3---||

   Second guitar (with guitar 3):

   e|-----19-15----17-14---------|----17-14----15-12---------|
   B|o-17-------17-------15-15-15|-15-------15-------13-13-13|
   G|----------------------------|---------------------------|
   D|----------------------------|---------------------------|
   A|o---------------------------|---------------------------|
   E|----------------------------|---------------------------|

                                                              2x
   e|----15-12----14-12h14p12-11---|--------------------------||
   B|-13-------13----------------13|-12-13-15-13-16-17-19-20-o||
   G|------------------------------|--------------------------||
   D|------------------------------|--------------------------||
   A|------------------------------|-------------------------o||
   E|------------------------------|--------------------------||

   Third guitar (with guitar 2)

   e|-----22-19----20-17---------|----20-17----19-15----------|
   B|o-20-------20-------19-19-19|-19-------19-------17-17-17-|
   G|----------------------------|----------------------------|
   D|----------------------------|----------------------------|
   A|o---------------------------|----------------------------|
   E|----------------------------|----------------------------|

                                                               2x
   e|----19-15----17-15h17p15-14-12|-11-12-14-12-14-15-17-19---||
   B|-17-------17------------------|--------------------------o||
   G|------------------------------|---------------------------||
   D|------------------------------|---------------------------||
   A|------------------------------|--------------------------o||
   E|------------------------------|---------------------------|| 

   Second guitar:

   E|------------------15~~-----------|-17-15h17p15----19-15-12h15p12-------|
   B|--17~~------17-19-----------17-19|-------------17----------------13~~--|
   G|---------------------------------|-------------------------------------|
   D|---------------------------------|-------------------------------------|
   A|---------------------------------|-------------------------------------|
   E|---------------------------------|-------------------------------------|


   e|-----------15-14-----15-14------|----------------------------|
   B|--15b-15b--------12--------12p14|-12--------15---------------|
   G|--------------------------------|-----12-14-14b---14b-----12-|
   D|--------------------------------|----------------------14----|
   A|--------------------------------|----------------------------|
   E|--------------------------------|----------------------------|


   e|------------------------|----------------------------------|
   B|------------------------|----------------------------------|
   G|----------12--14-12--11-|-----14--12-11h12p11--------------|
   D|-14~~-12----------------|-12------------------10~~-----9---|
   A|------------------------|---------------------------12-----|
   E|------------------------|----------------------------------|


   e|----------------------------|-------15--14-11h12p11-------/19--|
   B|----------------------------|-12--------------------12-10------|
   G|--------------------9-11-12-|----12----------------------------|
   D|-10~~-9-10-12-10-12---------|----------------------------------|
   A|----------------------------|----------------------------------|
   E|----------------------------|----------------------------------|

   Second guitar (with guitar 3):

   e|-----19-15----17-14---------|----17-14----15-12---------|
   B|o-17-------17-------15-15-15|-15-------15-------13-13-13|
   G|----------------------------|---------------------------|
   D|----------------------------|---------------------------|
   A|o---------------------------|---------------------------|
   E|----------------------------|---------------------------|
[ Tab from: http://www.guitartabs.cc/tabs/m/metallica/master_o_puppets_tab.html ]
                                                              2x
   e|----15-12----14-12h14p12-11---|--------------------------||
   B|-13-------13----------------13|-12-13-15-13-16-17-19-20-o||
   G|------------------------------|--------------------------||
   D|------------------------------|--------------------------||
   A|------------------------------|-------------------------o||
   E|------------------------------|--------------------------||

   Third guitar (wth guitar 2):

   e|-----22-19----20-17---------|----20-17----19-15----------|
   B|o-20-------20-------19-19-19|-19-------19-------17-17-17-|
   G|----------------------------|----------------------------|
   D|----------------------------|----------------------------|
   A|o---------------------------|----------------------------|
   E|----------------------------|----------------------------|

                                                               2x
   e|----19-15----17-15h17p15-14-12|-11-12-14-12-14-15-17-19---||
   B|-17-------17------------------|--------------------------o||
   G|------------------------------|---------------------------||
   D|------------------------------|---------------------------||
   A|------------------------------|--------------------------o||
   E|------------------------------|---------------------------||

   First guitar: Switch to distortion.
                                                                                  2x
   e|-----------------|-0h2p0-------3--------|----------------|-------------------||
   B|o-------------3--|-------3-----------3--|-3-----0-----0--|-----0-------0----o||
   G|--------0---2---2|---------2p0-----0---0|---0-------2----|---2-------2-------||
   D|------2---0------|----------------------|-----2----------|---------1---------||
   A|o---2------------|---------------3------|---------0-----0|-2-----2----------o||
   E|--0--------------|----------------------|----------------|---------------3---||
   PM  ...............                ...   .    ...   ...   .....    .....   .

   Second guitar: With the riff above.
                                               2x
   e|-----------|---------|--------|-----------||
   B|o----------|---------|--------|----------o||
   G|-----------|---------|--------|-----------||
   D|---9----7--|------5--|------2-|--4----8---||
   A|o--7----5--|------3--|------0-|--2----6--o||
   E|-----------|---------|--------|-----------||


-----------------------------------------------------------------------------------------

   e|-------------------------|-------------------------|
   B|-------------------------|-------------------------|
   G|-------------------------|-------------------------|
   D|--2--2--2--2--2--2--2--2-|-2--2--2--2--2--2--2--2--|
   A|--2--2--2--2--2--2--2--2-|-2--2--2--2--2--2--2--2--|
   E|--0--0--0--0--0--0--0--0-|-0--0--0--0--0--0--0--0--|
   PM  ...............................................
                                                                                   3x
   e|--------------------|-----------------|-------------------|-------------------||
   B|o-------------------|-----------------|-------------------|------------------o||
   G|--------------------|-----------------|-------------------|-------------------||
   D|----------------6-6-|---------------6-|---------------6-6-|---------------6---||
   A|o-4-4-5-4-4-4-5-4-4-|-4-4-5-4-4-4-5-4-|-4-4-5-4-4-4-5-4-4-|-4-4-5-4-4-4-5-4--o||
   E|--2-2-3-2-2-2-3-----|-2-2-3-2-2-2-3---|-2-2-3-2-2-2-3-----|-2-2-3-2-2-2-3-----||
   PM  .............       .............     .............       .............

   e|-------|-------|
   B|-------|-------|
   G|-------|-------|
   D|--5----|--4----|
   A|--5----|--4----|
   E|--3----|--2----|


-----------------------------------------------------------------------------------------

   The first guitar plays this behind the solo:
                                                                     4x
   e|---------------------------------|------------------------------||
   B|o--------------------------------|-----------------------------o||
   G|---------------------------------|------------------------------||
   D|---------------------------------|------------------------------||
   A|o-------------------5/7--8\7-5/7-|-------------------5/7--5/7--o||
   E|--0-0-0-0-0-0-0-0-0-3/5--6\5-3/5-|-0-0-0-0-0-0-0-0-0-3/5--3/5---||
   PM  .................                .................
                                                                     2x
   e|---------------------------------|------------------------------||
   B|o--------------------------------|-----------------------------o||
   G|---------------------------------|------------------------------||
   D|--------------------4-4--5\4-4-4-|-------------------4----4-----||
   A|o-------------------0-2--3\2-0-2-|-------------------0h2--0h2--o||
   E|--2-2-2-2-2-2-2-2-2--------------|-2-2-2-2-2-2-2-2-2------------||
   PM  .................                .................

   And then the solo itself:
                                                                                2x
   e|--17p12----------12-17p12----------12-17p12----------12-15p12----------12--||
   B|o-------13-12-13----------13-12-13----------13-12-13----------13-12-13----o||
   G|---------------------------------------------------------------------------||
   D|---------------------------------------------------------------------------||
   A|o-------------------------------------------------------------------------o||
   E|---------------------------------------------------------------------------||


   e|--19-19-19-17-17-17-15-15-15-14-14-14-17-17-17-15-15-15-14-14-14-----------|
   B|-----------------------------------------------------------------15-15-15--|
   G|---------------------------------------------------------------------------|
   D|---------------------------------------------------------------------------|
   A|---------------------------------------------------------------------------|
   E|---------------------------------------------------------------------------|


   e|----------------17p15------------------|--23b-23b-23b--24b-24b-24b--|
   B|--17bb-17p15p14-------15p14p13---------|----------------------------|
   G|-------------------------------16-14~--|----------------------------|
   D|---------------------------------------|----------------------------|
   A|---------------------------------------|----------------------------|
   E|---------------------------------------|----------------------------|


   e|----------------------------|--10-8-7----8-7-------------7~~--|
   B|----------------------------|---------10-----10-8-7-8-10------|
   G|--2-4-2b-4-3-2-2h4p2--------|---------------------------------|
   D|---------------------2-2h4~-|---------------------------------|
   A|----------------------------|---------------------------------|
   E|----------------------------|---------------------------------|


   e|--10p8p7-10p8p7-12p10p9-12p10p9-14p12p11-14p12p11-16p14p13--|
   B|------------------------------------------------------------|
   G|------------------------------------------------------------|
   D|------------------------------------------------------------|
   A|------------------------------------------------------------|
   E|------------------------------------------------------------|


   e|--17p15-14-19p17-14-17p15-14-19p17-14-17p15-14-19p17-14-17p15-14-19p17-14--|
   B|---------------------------------------------------------------------------|
   G|---------------------------------------------------------------------------|
   D|---------------------------------------------------------------------------|
   A|---------------------------------------------------------------------------|
   E|---------------------------------------------------------------------------|


   e|------14-----14-----14-----14-19p14----14-19p14----14--|
   B|--17b----17b----17b----17b----------17----------17-----|
   G|-------------------------------------------------------|
   D|-------------------------------------------------------|
   A|-------------------------------------------------------|
   E|-------------------------------------------------------|


   e|------14-----14-----14-----14-----15-----15-----15-----15--|
   B|--17b----17b----17b----17b----18b----18b----18b----18b-----|
   G|-----------------------------------------------------------|
   D|-----------------------------------------------------------|
   A|-----------------------------------------------------------|
   E|-----------------------------------------------------------|


   e|------16-----16-----17----17-----18-----18--24/\/\/\/\/\/\/\--|
   B|--19b----19b----20b----20----21b----21b-----------------------|
   G|--------------------------------------------------------------|
   D|--------------------------------------------------------------|
   A|--------------------------------------------------------------|
   E|--------------------------------------------------------------|

   Then the first guitar play this:

   e|-------------------|
   B|-------------------|
   G|-------------------|
   D|--4-4-4-4-4-4-4-4--|
   A|--2-2-2-2-2-2-2-2--|
   E|-------------------|
   PM  ...............

-----------------------------------------------------------------------------------------
                                                                           2x
   e|----------------------------------|-----------------------------------||
   B|o---------------------------------|----------------------------------o||
   G|----------------------------------|-----------------------------------||
   D|------------------------------4-4-|------------------------------4----||
   A|o-----3-----3-----3-----3-----2-2-|------3-----3-----3-----3-----2---o||
   E|--0-0-1-0-0-1-0-0-1-0-0-1-0-0-----|--0-0-1-0-0-1-0-0-1-0-0-1-0-0------||
   PM  ...   ...   ...   ...   ...        ...   ...   ...   ...   ...
                                                                         2x
   e|----------------------------------|---------------------------------||
   B|o---------------------------------|--------------------------------o||
   G|----------------------------------|---------------------------------||
   D|--------------------------------2-|--4h5----------------------------||
   A|o-------------------------2-3-5---|------3---333-2-3-5-3-2---------o||
   E|--0-0-0-0-0-0-0-000-2-3-5---------|------------------------3-2------||
   PM  .............................              .................


   e|----------------------------------|-----------------------------|
   B|o---------------------------------|-----------------------------|
   G|--------------------------------0-|--2-4------------------------|
   D|-------------Second guitar>>>>4-2-|--4-5--2--222-0-2-4-2-0------|
   A|o-------------------------2-3-5---|-------3--333-2-3-5-3-2------|
   E|--0-0-0-0-0-0-0-000-2-3-5---------|------------------------3-2--|
   PM  .............................              .................   


   e|----------------------------------|-----------------------------|
   B|o---------------------------------|-----------------------------|
   G|--------------------------------0-|--2-4------------------------|
   D|-------------Second guitar>>>>4-2-|--4-5--5---------------------|
   A|o-------------------------2-3-5---|-------3--333-2-3-5-3-2------|
   E|--0-0-0-0-0-0-0-000-2-3-5---------|------------------------3-2--|
   PM  .............................              .................   
 

   e|----------------------|
   B|----------------------|
   G|----------------------|
   D|-----555-4-5-7-5-4----|
   A|--2--333-2-3-5-3-2-7-5|
   E|--0----------------3-2|
   PM     .................

-----------------------------------------------------------------------------------------
                                                                             2x
   e|----------------------------------|-------------------------------------||
   B|----------------------------------|------------------------------------o||
   G|----------------------------------|-------------------------------------||
   D|----------------------------------|-------------------------------------||
   A|------2-----3-----4-----3-----2-2-|------2-----3-----5\4---5\4---5\4---o||
   E|--0-1---0-1---0-1---0-1---0-1-----|--0-1---0-1---0-0-3\2-0-3\2-0-3\2----||
   PM  ...   ...   ...   ...   ...        ...   ...   ...

   e|-------------------|
   B|-------------------|
   G|-------------------|
   D|-------------------|
   A|--5\4---5\4---5\4--|
   E|--3\2-0-3\2-0-3\2--|


-----------------------------------------------------------------------------------------
                                                                    4x
   e|--------------------------------|------------------------------||
   B|o-------------------------------|-----------------------------o||
   G|--------------------------------|------------------------------||
   D|--------------------------------|------------------------------||
   A|o-------------------5/7-8\7-5/7-|--------------------5/7--5/7-o||
   E|--0-0-0-0-0-0-0-0-0-3/5-6\5-3/5-|--0-0-0-0-0-0-0-0-0-3/5--3/5--||
   PM  .................                .................
                                                                     2x
   e|---------------------------------|------------------------------||
   B|o--------------------------------|-----------------------------o||
   G|---------------------------------|------------------------------||
   D|--------------------4-4--5\4-4-4-|--------------------4----4----||
   A|o-------------------0-2--3\2-0-2-|--------------------0h2--0h2-o||
   E|--2-2-2-2-2-2-2-2-2--------------|--2-2-2-2-2-2-2-2-2-----------||
   PM  .................                 .................

   e|-------------------|
   B|-------------------|
   G|-------------------|
   D|--4-4-4-4-4-4-4-4--|
   A|--2-2-2-2-2-2-2-2--|
   E|-------------------|
   PM  ...............

-----------------------------------------------------------------------------------------
                                                                          3x
   e|--------------------------------|------------------------------------||
   B|o-------------------------------|-----------------------------------o||
   G|--9-------7---9-----------------|-----------------------------8------||
   D|--9-------7---9------9----------|-----------10---9------------8---9--||
   A|o-7-------5---7--7-9---10-9h10--|-----------10---9------------6---9-o||
   E|--0-0-0-0-----------------------|---7-7-7-7-8----7----8-8-8-8-----7--||
   PM  .......        ...   .            .......           .......

   e|--------------------------------|-------------------------------------|
   B|--------------------------------|-------------------------------------|
   G|--9-------7---9-----------------|---Second guitar__-------------------|
   D|--9-------7---9------9----------|-----------10---9-|>>>7-5-4---4------|
   A|--7-------5---7--7-9---10-9h10--|-----------10---9-----9-7-6---6-7-6--|
   E|--0-0-0-0-----------------------|---7-7-7-7-8----7---------------8-7--|
   PM  .......        ...   .            .......

   e|------------|----------------------|----------------------|----------------------|
   B|------------|----------------------|----------------------|----------------------|
   G|------------|----------------------|--5-----------------2-|--7-----------------4-|
   D|--2-2---3-3-|--2-----------------5-|--5---------4-------2-|--7-----------------4-|
   A|--2-2---3-3-|--2-----------------5-|--3---0-0-0-2-0-0-0-0-|--5---------3-------2-|
   E|--0-0---1-1-|--0---0-0-0-2p0-0-0-3-|----------------------|------3-3-3---3-3-3---|
   PM  ...   ...        .....   .....          .....   .....          .....   .....

   e|----------------------|------------|-----------------------|--------------|
   B|----------------------|------------|-----------------------|--------------|
   G|--9-----------------5-|------------|--------------------5--|--------------|
   D|--9---------7-------5-|--2-2---3-3-|--2-----------------5--|--2-2---3-3---|
   A|--7---------5-------3-|--2-2---3-3-|--2-----------------3--|--2-2---3-3---|
   E|------0-0-0---0-0-0---|--0-0---1-1-|--0---0-0-0-2p0-0-0----|--0-0---1-1---|
   PM      .....   .....      ...   ...        .....   .....       ...   ...
                           
-----------------------------------------------------------------------------------------
                                                                       4x
   e|---------------------------------|--------------------------------||
   B|o--------------------------------|-------------------------------o||
   G|---------------------------------|--------------------------------||
   D|--2------------------------------|--------------------------------||
   A|o-2-----------------5/7--8\7-5/7-|--------------------5/7--5/7---o||
   E|--0-0-0-0-0-0-0-0-0-3/5--6\5-3/5-|--0-0-0-0-0-0-0-0-0-3/5--3/5----||
   PM  .................                 .................
   
   e|-------------------|
   B|-------------------|
   G|----"Mohahaha!"----|
   D|-------------------|
   A|-------------------|
   E|-------------------|

   e|-----------------------------------------------------------------------------|
   B|-----------------------------------------------------------------------------|
   G|-----------------------------------------------------------------------------|
   D|------------------2----------------------------------------------------------|
   A|-5\4---5\4---5\4--2----------------------------------------------------------|
   E|-3\2-0-3\2-0-3\2--0----------------------------------------------------------|
Comments