Metallica - Mama Said Chords & Tabs

 

Mama Said Chords & Tabs

Metallica Chords & Tabs

Version: 3 Type: Tab 0 ratings
1 star 2 stars 3 stars 4 stars 5 stars
comments

Mama Said Tab

   
this is the first tab i've submitted, and i'm sure there has got to be a million different versions of this, but i figured i'd show yall mine.

standard tuning.
[ Tab from: http://www.guitartabs.cc/tabs/m/metallica/mama_said_tab_ver_3.html ]
Verse(all of em)
                                   
e---1---0---1---3---1---0------0---0--0--0
B---3---3---3---3---3---3------1---1--0--1
G---2---2---2---2---2---2-----0----2--2--2
D---x---x---x---x---x---x----2-----2--2--2
A---x---x---x---x---x---x---3------0--0--0
E---x---x---x---x---x---x---x------x--x--x

Chorus
    Dm   C    Am   G
e---1----0----0----3
B---3----1----1----3
G---2----0----2----0
D---x----2----2----0
A---x----3----0----2
E---x----x----x----3


Nothing much to it, but its a great song.
I gotta give credit to my friend Dan tha man, he 
helped out quite a bit, and he's one of the best 
southpaw players out there.  Thanks man.
Comments