Metallica - Low Mans Lyric Chords & Tabs

 

Low Mans Lyric Chords & Tabs

Metallica Chords & Tabs

Version: 4 Type: Tab 0 ratings
1 star 2 stars 3 stars 4 stars 5 stars
comments

Low Mans Lyric Tab

please let my tab be shown i'm just a beginner u know!!!


Intro:
E------0----------0---------0-------0------------  Repeat 4X
B--------2----------3---------0-------0----------
G------------------------------------------------
D----2-------------------------------------------
A--0-------0--------------2------5---------------
E------------3----------3------------------------

Verse part:
E------0----------0---------0-------0------------  Repeat 2X
B--------2----------3---------0-------0----------
G------------------------------------------------
D----2-------------------------------------------
A--0-------0--------------2------5---------------
E------------3----------3------------------------
My eyes, seek reality. My fingers, seek the rain....
[ Tab from: http://www.guitartabs.cc/tabs/m/metallica/low_mans_lyric_tab_ver_4.html ]
E-----------------3s5s3------0-0------0-0----------  Repeat 2X
B--------3p2------3s5s3------4-4------7-7----------
G------2---------------------4-4------7-7----------
D----2-----------------------4-4------7-7----------
A--0---------0------------2-------2-5--------------
E--------------3--------3--------------------------

Solo:
E---------------------3s5s3------------------------------------ Repeat ...X
B------2---2h3-2------3s5s3-----2---2h3------5---5h6-5---------
G----2---2-------2-0----------2---2------5-5---5---------------
D--2------------------------2----------------------------------
A--------------------------------------------------------------
E--------------------------------------------------------------

E----0---0---0--------------- Repeat until bridge
B----0---0---0--------0-2----
G-----------------0h3--------
D----------------------------
A--7---5---3-----------------
E--5---3---1-----------------
....all i want from you isforgive me....   (you know how it goes)

that's all folks. REMEMBER "BE ORIGINAL"
Comments