Metallica - Low Mans Lyric Chords & Tabs

 

Low Mans Lyric Chords & Tabs

Metallica Chords & Tabs

Version: 2 Type: Bass Tab 0 ratings
1 star 2 stars 3 stars 4 stars 5 stars
comments

Low Mans Lyric Bass Tab

"Low Man's Lyric"
by Metallica
From album "Reload"

Tabbed by Eros Fratini
For suggestions or insults e-mail at e-r-o-s@libero.it

Tune down 1/2 step

For the time just listen the song.
Play this:

Fig.1

Gb:---------------------------------------------------------------------
Db:---------------------------------------------------------------------
Ab:---12---12--10/7-7--9/10-10h12--12---14/7---7--0-10/12-12--14/10--10-
Eb:---------------------------------------------------------------------

Gb:------------------------------:
Db:------------------------------:
Ab:------------------------------:
Eb:-12/10-8-8-10-8--7-7-7-0-3-5--: end Fig.1

Fig.2

Gb:---------------------------------------------------------------------
Db:----------------------------------------------------------------5----
Ab:-----------5h7--5--------------------7-------------------------------
Eb:-5--3--0----------7-5---5-5/3--0-------5-5h8-5--5-------3---------3--

Gb:-------------------------------------------------:
Db:-------------------------------------------------:
Ab:-----3------3-5-3--2---2--2--2--2--2--2--0h2-3-0-:
Eb:-3-5---------------------------------------------: end Fig.2

Fig.3

Gb:---------------------------------:
Db:----4-4---4-4---4-4-4------------:
Ab:-2--2-2-2-2-2-2-2-2-2--2-2-2-7-5-:
Eb:---------------------------------: end Fig.3

Fig.4

Gb:---------------------------------------------------------------------
Db:---------------------------------------------------------------------
Ab:------------------------3-5--5-5--5--5/7--7\-------------------------
Eb:-5-5-5-5--5-5-3-3-3-3-5-----------------------3-3--0-3-5-5-5-5-5--3--

Gb:--------------------------------------------:
Db:--------------------------------------------:
Ab:------------5---5-5-5-5--5-7--7\--------/12-:
Eb:-3-3-3-3-5-----------------------0-3--3-----: end Fig.4

Repeat Fig.1 x 1
Repeat Fig.2 x 1
Substitute Fig.3 with:
  Gb:------------------------------------------:
  Db:------------------------------------------:
  Ab:-2--2-2-2--2--2-2-2--2--2---2--2--2-2-0---:
  Eb:--------------------------2-------------3-:

Interlude:

Gb:---------------------------------------------------------------------
Db:-----------------------5---------------------------------------------
Ab:-------------------------------5---5-5-5---5-5/7--7-7\---------------
Eb:-5-5-5-5--5-5-5-3---3----3-5-7-------------------------3-3---3-3--5--
                                                          Please... 

Gb:--------------------------------------------------------------------:
Db:-------------------5------------------------------------------------:
Ab:-------------------------------5---5-5--5---5-5--5/7--7-7\----------:
Eb:-5-5-5-5-5--3--3-----3--3--5/7-----------------------------0-3--0-3-: 
                                                           end Interlude    

[ Tab from: http://www.guitartabs.cc/tabs/m/metallica/low_mans_lyric_btab_ver_2.html ]
Fig.5
                                    1.          2. 
Gb:--------------------------------|-----------|-------------:
Db:--------------------------------|-----------|-------------:
Ab:--------------------------------|-----------|-------------:
Eb:-5--3-3-3--5-2-2-2-2-1--1-1-1-0-|1--1-0-1-3-|-1-0-1-0-1-3-: End Fig.5


Gb:---------------------------------------------------:
Db:---------------------------------------------------:
Ab:-------------------------------/7--7--7---------2/-:
Eb:-1--1---1-0-1--1--1-1--0--0--0----------0--0--0----:


Gb:-------------|-------------------------------------------------------
Db:-------------|-------------------------------------------------------
Ab:-/7--7-7-5---|-----------------------------5---5-5-5-5-5--5/7--7\----
Eb:-----------7-|-5--5--5--5-5/3--3--3-3-3-5------------------------0-3-

Gb:-----------------------------------------------------------------:
Db:-----------------------------------------------------------------:
Ab:-------------------------------3-5--5-5-5--5-3-------------------:
Eb:-3-5-5-5--5--5-5/3--3-3-3--3-5-----------------5--0-0--0--0-3--3-:


Gb:---------------------------------------------------------------------
Db:---------------------------------------------------------------------
Ab:---------------------5h7-5h7-5--------------------------7-7----------
Eb:-5----5--X-5/0---0-0-----------7-5---5-5-5-5\X-3--0--0------5h8--5-5-

Gb:--------------------------------------------------4--------------:
Db:----------------------5------------------------------------------:
Ab:--------------------------------3-3-3-3-3h5--3-2----2-2-2--2-2-2-:
Eb:-5-5--5----X-5--3--3-----3--3h5----------------------------------:


Gb:---------------------------------------------------------------------
Db:---------------------------------------------------------------------
Ab:----------------------2/7--5------------------------7-7--------------
Eb:-5----5-5--X-5-5-0--0--------7--5--5--5-5\X-3--0--0-----5h8-5-5--5-5-


Gb:----------------5----------------------------------------------------
Db:----------------5--5-------------------------------------------------
Ab:------------------------------3--3-3-3--5/7--5-3-2--2--2-2-2--2--2-2-
Eb:-5-5----X--5--3------3-3--3-5----------------------------------------

Gb:----------------------------------------------------------------:
Db:----------------------------------------------------------------:
Ab:-2-0-2--2-2-2--2--0h2-3-0-2-2-2-0-2-2-0-2-0-2-2-0-2-0-2-2-0-----:
Eb:------------------------------------------------------------0-3-:

Interlude:

Gb:--------------------------------------------------------------------
Db:--------------------------------------------------------------------
Ab:------------------------------5--5-5-5--5--5--5/7--7-7-5\-----------
Eb:-5---5-5--5-5-5-5-3-3-3-3-5/7-----------------------------3-3--3-2-3

Gb:-------------------------------------------------------------------:
Db:-------------------------------------------------------------------:
Ab:------------------------------------3-3/5-5-5-5-5-5-5-7--7\--------:
Eb:--5--5-5-5---5--5--5\3-3--3--3--3-5------------------------0-3---3-:

Repeat Fig.5 x 1

Gb:--------------------------------------------------:
Db:--------------------------------------------------:
Ab:--------2--5/7--7--7----------7--7-5--------------:
Eb:-0---0---------------0--0--0---------7--5--5--5\3-:
Comments