Metallica - Live Shit Chords & Tabs

 

Live Shit Chords & Tabs

Metallica Chords & Tabs

Version: 3 Type: Bass Tab 0 ratings
1 star 2 stars 3 stars 4 stars 5 stars
comments

Live Shit Bass Tab

#----------------------------------PLEASE NOTE---------------------------------#
#This file is the author's own work and represents their interpretation of the #
#song. You may only use this file for private study, scholarship, or research. #
#------------------------------------------------------------------------------##

This is the beginning to Jason's bass solo on the Live Shit Seattle DVD.

Transcribed by andrew88
ridethelightning3@hotmail.com

Tuning: standard

|---|----9---------9-9-------|---9-----9-----9-----------|
|---|------9-----------------|-----9-----9-----9---------|
|-0-|-7------7-0-6-----6-6-0-|---------------------------|
|---|------------------------|-9-----9-----7-----7-7h9-7-|


|-------------------------|------------------------|
|---7-7-----7-7-----7-7---|----9-----9-9-----9-----|
|-------7-------7-------7-|------9-------9-----9-0-|
|-5-------5-------5-------|-7------7-------7-------|


|---9-9-----9---9-----9---|---9-----9-----9-----------|
|-------9---------9-----9-|-----9-----9-----9---------|
|-7-------7---6-----6-----|---------------------------|
|-------------------------|-9-----9-----7-----7-7h9-7-|


|------------------------|---------------------------|
|-------7-7------7---7---|---------------------------|
|---7--------------------|-----6---7---9---7---6-6h7-|
|-5---5-----5--5---5---5-|-7-7---7---7---7---7-------|

[ Tab from: http://www.guitartabs.cc/tabs/m/metallica/live_shit_btab_ver_3.html ]
|---9-9-----9---9-----9---|---9-----9-----9-----9-----|
|-------9---------9-----9-|-----9-----9-----9-----5h7-|
|-7-------7---6-----6-----|---------------------------|
|-------------------------|-9-----9-----7-----7-------|


|----9-----9-----9-------|----8---9---11---9---8----|
|-7----7-7---7-7---7-7-8-|-9----9---9----9---9------|
|------------------------|-----------------------0--|
|------------------------|--------------------------|


|------9-----9---9-----9---|---9-----9-----9---------|
|------------------9-----9-|-----9-----9-----9-------|
|-(0)----0-7---6-----6-----|---------------------7h9-|
|--------------------------|-9-----9-----7-----7-----|


|----9-----9-----9-------|----8---9---11---9---8---|
|-7----7-7---7-7---7-7-8-|-9----9---9----9---9---9-|
|------------------------|-------------------------|
|------------------------|-------------------------|


|----------9----|
|-------9-------|
|----7----------|
|-0-------------|


Tablature Legend
----------------
 h   - hammer-on
 p   - pull-off
 b   - bend
 pb  - pre-bend
 r   - bend release (if no number after the r, then release immediately)
 /\  - slide into or out of (from/to "nowhere")
 s   - legato slide
 S   - shift slide

***************************************************************************************
* Generated using Power Tab Editor by Brad Larsen - http://powertab.guitarnetwork.org *
***************************************************************************************
Comments