Metallica - Live Shit Binge And Purge Chords & Tabs

 

Live Shit Binge And Purge Chords & Tabs

Metallica Chords & Tabs

Version: 1 Type: Bass Tab 0 ratings
1 star 2 stars 3 stars 4 stars 5 stars
comments

Live Shit Binge And Purge Bass Tab

tuning:standard
tabbed by:a crazy teenage rock and roll fan
artist:metallica
song title:there wasnt really a name for it so i gave it "the drinkin song"
album:live shit binge and purge; mexico city; disc one; track nine
year:1993

this song was on the mexico city show, jayzon plays this on his 
bass geetar while jaymz gets himself wasted on a beer.
G|---------------------------------------------------------------|
D|-----------2-------------------------------2-------------------|
A|-------2-4---4---------2-4-2-4---------2-4---4---------2-4-2-4-|
E|-x-2-4-----------x-2-4-----------0-2-4-----------x-2-4---------|

G|-----------------------------------------------|
D|-----------2-------------0-----------------2---|
A|-------2-4---4---------2---2-4---------2-4---4-|
E|-x-2-4-----------x-2-4-----------x-2-4---------|
[ Tab from: http://www.guitartabs.cc/tabs/m/metallica/live_shit_binge_and_purge_btab.html ]
G|---------------------------------------------------------------------|
D|-----------------------6---6---6---6---6---------------4---4---4---4-|
A|-4-------------------------------------------------------------------|
E|---1-1-2-2-3-4---4-4-4---4---4---4---4---4-3-2---2-2-2---2---2---2---|

G|----------------------------------------------------|
D|---------------6---6---6---6--------------4-2-------|
A|----------------------------------------------4-2-4-|
E|-2-3-4---4-4-4---4---4---4---4-3-2------------------|

G|-----------------------------------------------|
D|-----------2-------------------------------2---|
A|-------2-4---4---------2-4-2-4---------2-4---4-|
E|-x-2-4-----------x-2-4-----------x-2-4---------|

G|------------------------------------------|
D|--------------------------------------2---|
A|-------2/12-14-12-----------------2-4---4-|
E|-x-2-4------------14-12-0---x-2-4---------|

ROCK AND ROLL!
Comments