Metallica - Let It Loose Chords & Tabs

 

Let It Loose Chords & Tabs

Metallica Chords & Tabs

Version: 2 Type: Tab 0 ratings
1 star 2 stars 3 stars 4 stars 5 stars
comments

Let It Loose Tab

Band- Metallica
Song- Let It Loose
Album- Kill Em' All Demo
Tuning- Standard

e:----------------------------|
B:----------------------------|
G:-----5-----5-----5-----7----|
D:-----5-----5-----5-----7----|
A:-0-0---0-0---0-0---0-0------|
E:----------------------------|

e:----------------------------|
B:----------------------------|
G:-----5-----5-----5-----5----|
D:-----5-----5-----5-----5----|
A:-0-0---0-0---0-0---0-0------|
E:----------------------------|

e:----------------------------|
B:----------------------------|
G:-----5-----5-----5-----7----|
D:-----5-----5-----5-----7----|
A:-0-0---0-0---0-0---0-0------|
E:----------------------------|

e:----------------------------|
B:----------------------------|
G:-----5-----5-----5-----5----|
D:-----5-----5-----5-----5----|
A:-0-0---0-0---0-0---0-0------|
E:----------------------------|


e:-------------------------|
B:-------------------------|
G:----5----5----5----5---7-|
D:----5----5----5----5---7-|
A:-0----0----0----0----0---|
E:-------------------------|

e:---------------------------|
B:---------------------------|
G:----5----5----5----7----5--|
D:----5----5----5----7----5--|
A:-0----0----0----0-----0----|
E:---------------------------|

e:-------------------------|
B:-------------------------|
G:----5----5----5----5---7-|
D:----5----5----5----5---7-|
A:-0----0----0----0----0---|
E:-------------------------|

e:---------------------------|
B:---------------------------|
G:----5----5----5----7----5--|
D:----5----5----5----7----5--|
A:-0----0----0----0-----0----|
E:---------------------------|


e:--------------------------------------------------------------------|
B:--------------------------------------------------------------------|
G:--------------------------------------------------------------------|
D:--------------------------------------------------------------------|
A:-7-7-7-7-7-7-7-7-7--5-5-5-5-5-5-5-5--4-4-4-4-4-4-4-4--3-2-3-2-3--5--|
E:-5-5-5-5-5-5-5-5-5--3-3-3-3-3-3-3-3--2-2-2-2-2-2-2-2--1-0-1-0-1--3--|

e:-------------------------|
B:-------------------------|
G:----5----5----5----5---7-|
D:----5----5----5----5---7-|
A:-0----0----0----0----0---|
E:-------------------------|

e:---------------------------|
B:---------------------------|
G:----5----5----5----7----5--|
D:----5----5----5----7----5--|
A:-0----0----0----0-----0----|
E:---------------------------|

e:-------------------------|
B:-------------------------|
G:----5----5----5----5---7-|
D:----5----5----5----5---7-|
A:-0----0----0----0----0---|
E:-------------------------|

e:---------------------------|
B:---------------------------|
G:----5----5----5----7----5--|
D:----5----5----5----7----5--|
A:-0----0----0----0-----0----|
E:---------------------------|


e:--------------------------------------------------------------------|
B:--------------------------------------------------------------------|
G:--------------------------------------------------------------------|
D:--------------------------------------------------------------------|
A:-7-7-7-7-7-7-7-7-7--5-5-5-5-5-5-5-5--4-4-4-4-4-4-4-4--3-2-3-2-3--5--|
E:-5-5-5-5-5-5-5-5-5--3-3-3-3-3-3-3-3--2-2-2-2-2-2-2-2--1-0-1-0-1--3--|

e:-------------------------|
B:-------------------------|
G:----5----5----5----5---7-|
D:----5----5----5----5---7-|
A:-0----0----0----0----0---|
E:-------------------------|

e:---------------------------|
B:---------------------------|
G:----5----5----5----7----5--|
D:----5----5----5----7----5--|
A:-0----0----0----0-----0----|
E:---------------------------|

e:-------------------------|
B:-------------------------|
G:----5----5----5----5---7-|
D:----5----5----5----5---7-|
A:-0----0----0----0----0---|
E:-------------------------|

e:---------------------------|
B:---------------------------|
G:----5----5----5----7----5--|
D:----5----5----5----7----5--|
A:-0----0----0----0-----0----|
E:---------------------------|


:-----------------------------------------|
:-----------------------------------------|
:-----------------------------------------|
:-----------------------7--------12-12-12-|
:-777777777-10-77777777---777777-10-10-10-|
:-----------------------------------------|

:----------------------------------|
:----------------------------------|
:----------------------------------|
:-----------------------7--------7-|
:-777777777-10-77777777---777777-5-|
:----------------------------------|

e:-------------------------|
B:-------------------------|
G:----5----5----5----5---7-|
D:----5----5----5----5---7-|
A:-0----0----0----0----0---|
E:-------------------------|

e:---------------------------|
B:---------------------------|
G:----5----5----5----7----5--|
D:----5----5----5----7----5--|
A:-0----0----0----0-----0----|
E:---------------------------|

e:-------------------------|
B:-------------------------|
G:----5----5----5----5---7-|
D:----5----5----5----5---7-|
A:-0----0----0----0----0---|
E:-------------------------|

e:---------------------------|
B:---------------------------|
G:----5----5----5----7----5--|
D:----5----5----5----7----5--|
A:-0----0----0----0-----0----|
E:---------------------------|


e:--------------------------------------------------------------------|
B:--------------------------------------------------------------------|
G:--------------------------------------------------------------------|
D:--------------------------------------------------------------------|
A:-7-7-7-7-7-7-7-7-7--5-5-5-5-5-5-5-5--4-4-4-4-4-4-4-4--3-2-3-2-3--5--|
E:-5-5-5-5-5-5-5-5-5--3-3-3-3-3-3-3-3--2-2-2-2-2-2-2-2--1-0-1-0-1--3--|

e:-------------------------|
B:-------------------------|
G:----5----5----5----5---7-|
D:----5----5----5----5---7-|
A:-0----0----0----0----0---|
E:-------------------------|

e:---------------------------|
B:---------------------------|
G:----5----5----5----7----5--|
D:----5----5----5----7----5--|
A:-0----0----0----0-----0----|
E:---------------------------|

e:-------------------------|
B:-------------------------|
G:----5----5----5----5---7-|
D:----5----5----5----5---7-|
A:-0----0----0----0----0---|
E:-------------------------|

e:---------------------------|
B:---------------------------|
G:----5----5----5----7----5--|
D:----5----5----5----7----5--|
A:-0----0----0----0-----0----|
E:---------------------------|

e:--------------------------------------------------------------------|
B:--------------------------------------------------------------------|
G:--------------------------------------------------------------------|
D:--------------------------------------------------------------------|
A:-7-7-7-7-7-7-7-7-7--5-5-5-5-5-5-5-5--4-4-4-4-4-4-4-4--3-2-3-2-3--5--|
E:-5-5-5-5-5-5-5-5-5--3-3-3-3-3-3-3-3--2-2-2-2-2-2-2-2--1-0-1-0-1--3--|

e:-------------------------|
B:-------------------------|
G:----5----5----5----5---7-|
D:----5----5----5----5---7-|
A:-0----0----0----0----0---|
E:-------------------------|

e:---------------------------|
B:---------------------------|
G:----5----5----5----7----5--|
D:----5----5----5----7----5--|
A:-0----0----0----0-----0----|
E:---------------------------|

e:-------------------------|
B:-------------------------|
G:----5----5----5----5---7-|
D:----5----5----5----5---7-|
A:-0----0----0----0----0---|
E:-------------------------|

e:---------------------------|
B:---------------------------|
G:----5----5----5----7----5--|
D:----5----5----5----7----5--|
A:-0----0----0----0-----0----|
E:---------------------------|

solo 1
e:-----------------------------------------------------------------------------------------|
B:-14h17p14h17p14h17p14h17p14h17p14/12h15p12h15p12h15p12h15p12h15p12-12/--14-17b--14h17p14-|
G:-----------------------------------------------------------------------------------------|
D:-----------------------------------------------------------------------------------------|
A:-----------------------------------------------------------------------------------------|
E:-----------------------------------------------------------------------------------------|

e:--------------------------------------------------------------------------------------|
B:----14-----------------------------------------------------------14h17p14----14h17p14-|
G:-16----16-14h16p14----14--------------------------------------16----------16----------|
D:-------------------16----16-14h16p14----14--------------------------------------------|
A:-------------------------------------16----16-14h16p14--------------------------------|
E:-------------------------------------------------------17-14/-------------------------|
[ Tab from: http://www.guitartabs.cc/tabs/m/metallica/let_it_loose_tab_ver_2.html ]
:------------------------------------------------------------------------------------------|
:----14h17p14----14-17-17b-----14h17p14----14h17p14----17p14-17p14----14h17p14----14h17p14-|
:-16----------16------------16----------16----------16-------------16----------16----------|
:------------------------------------------------------------------------------------------|
:------------------------------------------------------------------------------------------|
:------------------------------------------------------------------------------------------|

e:-----------------------------------------------------------------------------------------|
B:-----------------------------------------------------------------------------------------|
G:-16-14-16-14-----------------------------------------------------------------14-16-14-16-|
D:-------------16-14-16-14-----------------------------------------14-16-14-16-------------|
A:-------------------------16-14-16-14-----------------14-16-14-16-------------------------|
E:--------------------------------------17-14-17-14-17-------------------------------------|

:-------------|
:-------------|
:-14-16-16b---|
:-------------|
:-------------|
:-------------|

e:-------------------------|
B:-------------------------|
G:----5----5----5----5---7-|
D:----5----5----5----5---7-|
A:-0----0----0----0----0---|
E:-------------------------|

e:---------------------------|
B:---------------------------|
G:----5----5----5----7----5--|
D:----5----5----5----7----5--|
A:-0----0----0----0-----0----|
E:---------------------------|

e:-------------------------|
B:-------------------------|
G:----5----5----5----5---7-|
D:----5----5----5----5---7-|
A:-0----0----0----0----0---|
E:-------------------------|

e:---------------------------|
B:---------------------------|
G:----5----5----5----7----5--|
D:----5----5----5----7----5--|
A:-0----0----0----0-----0----|
E:---------------------------|


e:--------------------------------------------------------------------|
B:--------------------------------------------------------------------|
G:--------------------------------------------------------------------|
D:--------------------------------------------------------------------|
A:-7-7-7-7-7-7-7-7-7--5-5-5-5-5-5-5-5--4-4-4-4-4-4-4-4--3-2-3-2-3--5--|
E:-5-5-5-5-5-5-5-5-5--3-3-3-3-3-3-3-3--2-2-2-2-2-2-2-2--1-0-1-0-1--3--|

e:-------------------------|
B:-------------------------|
G:----5----5----5----5---7-|
D:----5----5----5----5---7-|
A:-0----0----0----0----0---|
E:-------------------------|

e:---------------------------|
B:---------------------------|
G:----5----5----5----7----5--|
D:----5----5----5----7----5--|
A:-0----0----0----0-----0----|
E:---------------------------|

e:-------------------------|
B:-------------------------|
G:----5----5----5----5---7-|
D:----5----5----5----5---7-|
A:-0----0----0----0----0---|
E:-------------------------|

e:---------------------------|
B:---------------------------|
G:----5----5----5----7----5--|
D:----5----5----5----7----5--|
A:-0----0----0----0-----0----|
E:---------------------------|



e:--------------------------------------------------------------------|
B:--------------------------------------------------------------------|
G:--------------------------------------------------------------------|
D:--------------------------------------------------------------------|
A:-7-7-7-7-7-7-7-7-7--5-5-5-5-5-5-5-5--4-4-4-4-4-4-4-4--3-2-3-2-3--5--|
E:-5-5-5-5-5-5-5-5-5--3-3-3-3-3-3-3-3--2-2-2-2-2-2-2-2--1-0-1-0-1--3--|

e:-------------------------|
B:-------------------------|
G:----5----5----5----5---7-|
D:----5----5----5----5---7-|
A:-0----0----0----0----0---|
E:-------------------------|

e:---------------------------|
B:---------------------------|
G:----5----5----5----7----5--|
D:----5----5----5----7----5--|
A:-0----0----0----0-----0----|
E:---------------------------|

e:-------------------------|
B:-------------------------|
G:----5----5----5----5---7-|
D:----5----5----5----5---7-|
A:-0----0----0----0----0---|
E:-------------------------|

e:---------------------------|
B:---------------------------|
G:----5----5----5----7----5--|
D:----5----5----5----7----5--|
A:-0----0----0----0-----0----|
E:---------------------------|

solo 2
e:-17-16-14----------17-16-14----------17-16-14----------17-16-14----------17-16-14--------|
B:----------17-16-14----------17-16-14----------17-16-14----------17-16-14----------17-1614|
G:-----------------------------------------------------------------------------------------|
D:-----------------------------------------------------------------------------------------|
A:-----------------------------------------------------------------------------------------|
E:-----------------------------------------------------------------------------------------|

e:-17-16-14----------17-16-14----------17-16-14--------------------------------------------|
B:----------17-16-14----------17-16-14----------17-16-14-----------14-17-14-16-14----------|
G:-------------------------------------------------------16-14--16----------------16-14-16-|
D:-----------------------------------------------------------------------------------------|
A:-----------------------------------------------------------------------------------------|
E:-----------------------------------------------------------------------------------------|

e:--------------------------------------------------------------------------------------|
B:--------------------------------------------------------------------------------------|
G:-14----------------------------------------------------------------14-16-14-16-16b----|
D:----16-14-16-14----------------------------------------14-16-14-16--------------------|
A:----------------16-14-16-14----------------14-16-14-16--------------------------------|
E:----------------------------17-14-17-14-17--------------------------------------------|

:--------------------------------------------------------------------------------------|
:----14h17p14----14h17p14----14h17p14-19--17p14----14h17p14-19----17p14----14h17p14-19-|
:-16----------16----------16--------------------16-------------16-------16-------------|
:--------------------------------------------------------------------------------------|
:--------------------------------------------------------------------------------------|
:--------------------------------------------------------------------------------------|

e:---------------------------------14-16-17----------14-16-17----------14-16-17--17b--14-17|
B:-17p14----14h17p14------14-16-17----------14-16-17----------14-16-17---------------------|
G:-------16----------16b-------------------------------------------------------------------|
D:-----------------------------------------------------------------------------------------|
A:-----------------------------------------------------------------------------------------|
E:-----------------------------------------------------------------------------------------|

e:-14-------------------------|
B:----17-14-17-14-------17b---|
G:----------------16-14-------|
D:----------------------------|
A:----------------------------|
E:----------------------------|

e:-------------------------|
B:-------------------------|
G:----5----5----5----5---7-|
D:----5----5----5----5---7-|
A:-0----0----0----0----0---|
E:-------------------------|

e:---------------------------|
B:---------------------------|
G:----5----5----5----7----5--|
D:----5----5----5----7----5--|
A:-0----0----0----0-----0----|
E:---------------------------|

e:-------------------------|
B:-------------------------|
G:----5----5----5----5---7-|
D:----5----5----5----5---7-|
A:-0----0----0----0----0---|
E:-------------------------|

e:---------------------------|
B:---------------------------|
G:----5----5----5----7----5--|
D:----5----5----5----7----5--|
A:-0----0----0----0-----0----|
E:---------------------------|


:-----------------------------------------------------------------------------------------|
:-----------------------------------------------14-17-14-17----14-17-14----14-17-14-------|
:-----------------------------------14-16-14-16-------------16----------16----------16-14-|
:-----------------------14-16-14-16-------------------------------------------------------|
:-7-5-4-3--/14-16-14-16-------------------------------------------------------------------|
:-5-3-2-1---------------------------------------------------------------------------------|

e:-----------------------------------------------------------------|
B:-----------------------------------------------------------------|
G:-16-14-----------------------------------------------------------|
D:-------16-14-16-14-----------------------------------------------|
A:-------------------16-14-16-14-----------------------------------|
E:-------------------------------17-14-17-14/-0--------------------|


e:-----------------------------|
B:-----------------------------|
G:-----5-----5-----5-----7--2--|
D:-----5-----5-----5-----7--2--|
A:-0-0---0-0---0-0---0-0----0--|
E:-----------------------------|
Comments