Metallica - Leper Messiah Chords & Tabs

 

Leper Messiah Chords & Tabs

Metallica Chords & Tabs

Version: 4 Type: Tab 0 ratings
1 star 2 stars 3 stars 4 stars 5 stars
comments

Leper Messiah Tab

   
-----------------------------------------------------------------------------
			 Leper Messiah - Metallica
-----------------------------------------------------------------------------


Tuning:EADGBe

e|--19p15------15-19p15------15---20p17-------17-20p17-------17-22p19-------|
B|-------17--17--------17--17-----------18--18---------18--18---------20--20|
G|---------16------------16---------------17-------------17-------------19--|
D|--------------------------------------------------------------------------|
A|--------------------------------------------------------------------------|
E|--------------------------------------------------------------------------|

e|-19-22p19------19--19p15------15-19p15------15----22-20-19-17--21-19-17---|
B|---------20--20---------17--17--------17--17----------------------------20|
G|-----------19-------------16------------16--------------------------------|
D|--------------------------------------------------------------------------|
A|--------------------------------------------------------------------------|
E|--------------------------------------------------------------------------|
[ Tab from: http://www.guitartabs.cc/tabs/m/metallica/leper_messiah_tab_ver_4.html ]
e|-19-16-------17-----------------------------------------------------------|
B|-------20-19----20-19-17--20-19-17--19-17-15-17p15---13-12-15--15b-15b----|
G|----------------------------------19--------------------------------------|
D|--------------------------------------------------------------------------|
A|--------------------------------------------------------------------------|
E|--------------------------------------------------------------------------|

e|----------------------------------------X-15p12---------------------------|
B|15p12---12--15--12--15b--15b-15p12---12--------15p12----12-15p12----------|
G|-----14----------------------------13----------------14----------14-12----|
D|--------------------------------------------------------------------------|
A|--------------------------------------------------------------------------|
E|--------------------------------------------------------------------------|

e|-----------------(7)\---19p15----15-19p15-17p15----15-19p15-17p15---15----|
B|-------15--(15)\--------------17----------------17----------------17------|
G|---12--14b-(14)\----------------------------------------------------------|
D|14------------------------------------------------------------------------|
A|--------------------------------------------------------------------------|
E|--------------------------------------------------------------------------|

e|-19p15----19p15-17p15--19p15-17p15--20b---20b--19p17----17--22b-22b~------|
B|-------17------------15-------------20b--------------19-------------------|
G|--------------------------------------------------------------------------|
D|--------------------------------------------------------------------------|
A|--------------------------------------------------------------------------|
E|--------------------------------------------------------------------------|




| /  slide up
| \  slide down
| h  hammer-on
| p  pull-off
| ~  vibrato
| b  bend
|( ) ghost note
===============================================================================
Comments