Metallica - Last Caress Chords & Tabs

 

Last Caress Chords & Tabs

Metallica Chords & Tabs

Version: 2 Type: Tab 0 ratings
1 star 2 stars 3 stars 4 stars 5 stars
comments

Last Caress Tab

Last Caress
Metallica
Transcribed by: Fontoppidan


 I got something to say.                        I    killed    your
 
E|----------------------|----------------------|--------------------|
B|----------------------|----------------------|--------------------|
G|----------------------|----------------------|--------------------|
D|----------------------|------------10----12--|--------------------|
A|--10-------10---------|--(10)-------8----10--|--10----------------|
E|---8--------8---------|--(-8)----------------|---8----------------|



  baby  today.            Doesn't matter much to me         as

|-----------------------|------------------|-------------------|
|-----------------------|------------------|-------------------|
|-----------------------|------------------|-------------------|
|-------------10----12--|--10--------------|--7----------------|
|--(10)--------8----10--|---8--------------|--5----------------|
|--(-8)-----------------|------------------|-------------------|



  long as it's dead.
 
|--------------------------------|----------------------------|
|--------------------------------|----------------------------|
|--------------------------------|----------------------------|
|--------------------------------|------------------10----12--|
|--10----10--10--10--10--10--10--|--10--10--10--10---8----10--|
|---8-----8---8---8---8---8---8--|---8---8---8---8------------|
 
        PM........................................|



|--------------------------------|----------------------------|
|--------------------------------|----------------------------|
|--------------------------------|----------------------------|
|--------------------------------|------------------10----12--|
|--10----10--10--10--10--10--10--|--10--10--10--10---8----10--|
|---8-----8---8---8---8---8---8--|---8---8---8---8------------|
 
        PM........................................|



    I    got   something   to   say.
 
||---------------------------------|----------------------------|
||*--------------------------------|----------------------------|
||---------------------------------|----------------------------|
||---------------------------------|------------------10----12--|
||*--10----10--10--10--10--10--10--|--10--10--10--10---8----10--|
||----8-----8---8---8---8---8---8--|---8---8---8---8------------|

          PM........................................|



        I     raped         your   mother    today.
 
|--------------------------------|----------------------------|
|--------------------------------|----------------------------|
|--------------------------------|----------------------------|
|--------------------------------|------------------10----12--|
|--10----10--10--10--10--10--10--|--10--10--10--10---8----10--|
|---8-----8---8---8---8---8---8--|---8---8---8---8------------|

        PM........................................|



   Doesn't  matter     much   to me                as
 
|---------------------------|-------------------------|
|---------------------------|-------------------------|
|---------------------------|-------------------------|
|--10-------10--------------|--7-------7--------------|
|---8----8---8--------8--8--|--5----5--5--------5--5--|
|---------------------------|-------------------------|

        PM           PM...|         PM         PM...| 



   long     as  she's  spread
[ Tab from: http://www.guitartabs.cc/tabs/m/metallica/last_caress_tab_ver_2.html ]
|----------------------------|-----------------------------|
|----------------------------|-----------------------------|
|----------------------------|-----------------------------|
|----------------------------|-----------------------------|
|--10----------10------------|--9-/10--10--10--10----------|
|---8----8--8---8------8--8--|--7-/-8---8---8---8----8--8--|

        PM...|        PM...|                        PM...|



  CHORUS

  Sweet   lovely    death                     just

|-------------------------|-------------------------|
|-------------------------|-------------------------|
|-------------------------|-------------------------|
|-------------------------|-------------------------|
|--3-------3--------------|--5-------5--------------|
|--1----1--1--------1--1--|--3----3--3--------3--3--|

       PM          PM...|        PM          PM...|



  waiting    for    your      breath                   Come,      sweet

|-----------------------|---------------------|-------------------------|
|-----------------------|---------------------|-------------------------|
|-----------------------|---------------------|-------------------------|
|-----------------------|---------------------|-------------------------|
|--10-------------------|--7------------------|--3-------3--------------|
|---8--------7----------|--5------------5--5--|--1----1--1--------1--1--|

                                       PM...|         PM         PM...| 
 

                                                            ____________________
  death,   one   last   caress                             |1.2.

|-------------------------|--------------------------------|--------------------|
|-------------------------|--------------------------------|--------------------|
|-------------------------|--------------------------------|--------------------|
|-------------------------|--------------------------------|--10----12----12----|
|--5-------5--------------|--10----10--10--10--10--10--10--|---8----10----10----|
|--3----3--3--------3--3--|---8-----8---8---8---8---8---8--|--------------------|

                   PM...|         PM.....................|


 ______________________________________________________
                                                       |

|--------------------------------|---------------------||
|--------------------------------|--------------------*||
|--------------------------------|---------------------||
|--------------------------------|--10----12----12-----||
|--10----10--10--10--10--10--10--|---8----10----10----*||
|---8-----8---8---8---8---8---8--|---------------------||

        PM.....................|


 ____________________
|3.

|--------------------|--------------------------------|------------------------|
|--------------------|--------------------------------|------------------------|
|--------------------|--------------------------------|------------------------|
|--10----12----12----|--------------------------------|--10----------12----12--|
|---8----10----10----|--10----10--10--10--10--10--10--|---8----8--8--10----10--|
|--------------------|---8-----8---8---8---8---8---8--|------------------------|

                             PM.....................|



|--------------------------------|--------------------|
|--------------------------------|--------------------|
|--------------------------------|--------------------|
|--------------------------------|--10----12----12----|
|--10----10--10--10--10--10--10--|---8----10----10----|
|---8-----8---8---8---8---8---8--|--------------------|

        PM.....................|




|--------------|------------------------|--------------|--------------------|
|--------------|------------------------|--------------|--------------------|
|--------------|------------------------|--------------|--------------------|
|--------------|--10----------12----12--|--------------|------------10--12--|
|--10----------|---8----8--8--10----10--|--10----------|--(10)-------8--10--|
|---8----------|------------------------|---8----------|--(-8)--------------|
 

www.stabakbandy.tk
Sandra
Comments