Metallica - Kirk Hammet Guitar Lessons Chords & Tabs

 

Kirk Hammet Guitar Lessons Chords & Tabs

Metallica Chords & Tabs

Version: 1 Type: Tab 0 ratings
1 star 2 stars 3 stars 4 stars 5 stars
comments

Kirk Hammet Guitar Lessons Tab

   
   _______________________________
  /                              /
 /  Kirk Hammet Guitar Lessons  /
/______________________________/

I found these old blurry note sheets on the internet and rewrote them as tabs.
The title of them was 'Kirk Hammet Guitar Lessons', and was suppose to be some
rhythm figures that Kirk Hammet used for warm up before concerts. Well, the
internet page was a Czech page, and the entire concept lacked a little of
credibility, so I think I'd be a bit optimistic to believe that these rhythm
figures was either written or used by Kirk Hammet... But no offence, I used them
for warm up, and they were great - just as great as any other thing you can play
to heat up your fingers, but no there's really no musicality in them.




Figure 1
    ^ v ^ v ^ v ^ v ^ v ^ v ^ v ^ v
    PM----------------------------|
    S S S S S S S S S S S S S S S S
||-----------------------------------||
||-----------------------------------||
||*---------------------------------*||
||*---------------------------------*||
||-----------------------------------||
||--0-0-0-0-0-0-0-0-0-0-0-0-0-0-0-0--||




Figure 2
    ^ v ^ v ^ v ^ v ^ v ^ v ^ v ^ v ^ v ^ v ^ v ^ v
    PM--------------------------------------------|
    |----6----| |----6----| |----6----| |----6----|
    S S S S S S S S S S S S S S S S S S S S S S S S
||---------------------------------------------------||
||---------------------------------------------------||
||*-------------------------------------------------*||
||*-------------------------------------------------*||
||---------------------------------------------------||
||--0-0-0-0-0-0-0-0-0-0-0-0-0-0-0-0-0-0-0-0-0-0-0-0--||




Figure 3
  PM--------------------------------------------------------------|
  S S S S S S S S S S S S S S S S   S S S S S S S S S S S S S S S S
|---------------------------------|---------------------------------|
|---------------------------------|---------------------------------|
|---------------------------------|-----------------0-0-0-0-0-0-0-0-|
|---------------------------------|-0-0-0-0-0-0-0-0-----------------|
|-----------------0-0-0-0-0-0-0-0-|---------------------------------|
|-0-0-0-0-0-0-0-0-----------------|---------------------------------|


  PM--------------------------------------------------------------|
  S S S S S S S S S S S S S S S S   S S S S S S S S S S S S S S S S
|-----------------0-0-0-0-0-0-0-0-|---------------------------------|
|-0-0-0-0-0-0-0-0-----------------|-0-0-0-0-0-0-0-0-----------------|
|---------------------------------|-----------------0-0-0-0-0-0-0-0-|
|---------------------------------|---------------------------------|
|---------------------------------|---------------------------------|
|---------------------------------|---------------------------------|




Figure 4
  E E E E E E E E   E E E E E E E E   E E E E E E E E
|-----------------|-------8-----7---|-6-5-5-6---7-----|
|---------------8-|-----7-----6---5-|---------5---6---|
|-------8-----7---|---6-----5-------|---------------5-|
|-----7-----6-----|-5---------------|-----------------|
|---6-----5-------|-----------------|-----------------|
|-5---------------|-----------------|-----------------|
  1 2 3 4 1 2 3 4   1 2 3 4 1 2 3 1   2 1 1 2 1 3 2 1


  E E E E E E E E   E E E E E E E E   E Q.  +H
|-8---------------|-----------------|-----------------|
|---7-----8-------|-----------------|-----------------|
|-----6-----7-----|-8---------------|-----------------|
|-------5-----6---|---7-----8-------|-----------------|
|---------------5-|-----6-----7---8-|-----------------|
|-----------------|-------5-----6---|-7-8~--(8)~------|
  4 3 2 1 4 3 2 1   4 3 2 1 4 3 2 4   3 4




Figure 5
  S S S S S S S S S S S S S S S S S S S S S S S S S S S S S S S S
|-8p7p6p5h8p7p6p5-------------------------------------------------|
|-----------------8p7p6p5h8p7p6p5---------------------------------|
|---------------------------------8p7p6p5h8p7p6p5-----------------|
|-------------------------------------------------8p7p6p5h8p7p6p5-|
|-----------------------------------------------------------------|
|-----------------------------------------------------------------|
  4 3 2 1 4 3 2 1 4 3 2 1 4 3 2 1 4 3 2 1 4 3 2 1 4 3 2 1 4 3 2 1


  S S S S S S S S S S S S S S S S S S S S S S S S S S S S S S S S
|-----------------------------------------------------------------|
|-----------------------------------------------------------------|
|-----------------------------------------------------------------|
|-------------------------------------------------8p7p6p5h8p76pp5-|
|-8p7p6p5h8p76p5p-----------------8p7p6p5h8p7p6p5-----------------|
|-----------------8p7p6p5h8p7p6p5---------------------------------|
  4 3 2 1 4 3 2 1 4 3 2 1 4 3 2 1 4 3 2 1 4 3 2 1 4 3 2 1 4 3 2 1




Figure 6
  |-3-| |-3-| |-3-| |-3-|   |-3-| |-3-| |-3-| |-3-|   |-3-| |-3-| |-3-| |-3-|
  E E E E E E E E E E E E   E E E E E E E E E E E E   E E E E E E E E E E E E
|-------------------------|-------------------------|-------------------1h3h5-|
|-------------------------|-------------------------|-1h3h5-------1h3h5-------|
|-------------------------|-------1h3h5-------1h3h5-|-------1h3h5-------------|
|-------------1h3h5-------|-1h3h5-------1h3h5-------|-------------------------|
|-------1h3h5-------1h3h5-|-------------------------|-------------------------|
|-1h3h5-------------------|-------------------------|-------------------------|
  1 2 4 1 2 4 1 2 4 1 2 4   1 2 4 1 2 4 1 2 4 1 2 4   1 2 4 1 2 4 1 2 4 1 2 4

[ Tab from: http://www.guitartabs.cc/tabs/m/metallica/kirk_hammet_guitar_lessons_tab.html ]
  |-3-| |-3-| |-3-| |-3-|   |-3-| |-3-| |-3-| |-3-|   |-3-| |-3-| |-3-| |-3-|
  E E E E E E E E E E E E   E E E E E E E E E E E E   E E E E E E E E E E E E
|-2h4h6-------------------|-------------------------|-------------------------|
|-------2h4h6-------2h4h6-|-------------------------|-------------------------|
|-------------2h4h6-------|-2h4h6-------2h4h6-------|-------------------------|
|-------------------------|-------2h4h6-------2h4h6-|-------2h4h6-------------|
|-------------------------|-------------------------|-2h4h6-------2h4h6-------|
|-------------------------|-------------------------|-------------------2h4h6-|
  1 2 4 1 2 4 1 2 4 1 2 4   1 2 4 1 2 4 1 2 4 1 2 4   1 2 4 1 2 4 1 2 4 1 2 4




Figure 7
  S S S S S S S S S  S S  S S  S S  S   S  S S  S S  S S  S S  S S  S Q
|-7h8p7p8-7h9p7h9-7h10p7h10-7h11p7h11-|-7h12p7h12-7h13p7h13-7h14p7h14p7---|
|-------------------------------------|-----------------------------------|
|-------------------------------------|-----------------------------------|
|-------------------------------------|-----------------------------------|
|-------------------------------------|-----------------------------------|
|-------------------------------------|-----------------------------------|
  1 2 1 2 1 2 1 2 1  2 1  2 1  3 1  3   1  3 1  3 1  4 1  4 1  4 1  4 1


  S S S S S S S S S  S S  S S  S S  S   S  S S  S S  S S  S S  S S  S Q
|-------------------------------------|-----------------------------------|
|-7h8p7p8-7h9p7h9-7h10p7h10-7h11p7h11-|-7h12p7h12-7h13p7h13-7h14p7h14p7---|
|-------------------------------------|-----------------------------------|
|-------------------------------------|-----------------------------------|
|-------------------------------------|-----------------------------------|
|-------------------------------------|-----------------------------------|
  1 2 1 2 1 2 1 2 1  2 1  2 1  3 1  3   1  3 1  3 1  4 1  4 1  4 1  4 1




Figure 8
   E    E   E    E    +E     E  E  E     E   E   E   E    Q     E  E
|------------------------------------|------12------15==b17~---15-12-|
|-14==b15---x---12~--(12)~-----------|----------12-------------------|
|-14==b16---x---12~--(12)~-----12-14=|=b16---------------------------|
|---------------------------14-------|-------------------------------|
|------------------------------------|-------------------------------|
|------------------------------------|-------------------------------|
  3             1           3  1  3         1   1   3          3  1
  2


   S  S  S  S  S  S  S  S  S  S  S  S  S  S  S  S    S  S  S  S  E  E  a  Q
|-15p12-15p12----12-17p12-10h12-10h12----12-17p12-|-15p12-15p12-15-12-12~----|
|-------------15----------------------15----------|-------------------13b15~-|
|-------------------------------------------------|--------------------------|
|-------------------------------------------------|--------------------------|
|-------------------------------------------------|--------------------------|
|-------------------------------------------------|--------------------------|
  3  1  3  1  3  1  4  1  4  1  4  1  3  1  4  1    3  1  3  1  3  1  1
                                                                      2



Figure 9
       |--3--|  |--3--|  |--3--|  |--3--|  |--3--|  |--3--|  |--3--|  |--3--|
  S    S  S  S  S  S  S  S  S  S  S  S  S  S  S  S  S  S  S  S  S  S  S  S  S
-12-|-17p12-12-12-12----------------------------------------------------------|
----|----------------12-17p12-12-13p12----------------------------------------|
----|----------------------------------12-17p12-12-12-12----------------------|
----|----------------------------------------------------12-17p12-12-12-12----|
----|----------------------------------------------------------------------12-|
----|-------------------------------------------------------------------------|
 1    4  1  1  1  1  1  4  1  1  2  1  1  4  1  1  1  1  1  4  1  1  1  1  1


   |--3--|  |--3--|  |--3--|  |--3--|
   S  S  S  S  S  S  S  S  S  S  S  S  H
|---------------------------------------------|
|---------------------------------------------|
|----------------------------------12---------|
|-------------------------------------14~-----|
|-17p12-12-12\10-12-10----10-12/14------------|
|----------------------12---------------------|
  4  1  1  1 \1  3  1  3  1  3 /3  1  3




Figure 10
                     |--3--|  |--3--|     |--3--|
   S  S  S  S  S  S  S  S  S  S  S  S  S  T  T  T  S  S  S
|-17p14----17p14----17p14-14-14h17p14-14-14h17p14----17p14-|
|-------17-------17-------------------------------17-------|
|----------------------------------------------------------|
|----------------------------------------------------------|
|----------------------------------------------------------|
|----------------------------------------------------------|
  3  1  3  3  1  3  3  1  1  1  4  1  1  1  3  1  3  3  1


   |--3--|                    |--3--|  |--3--|  |--3--|  |--3--|
   S  S  S  S  S  T  T  T  T  S  S  S  S  S  S  S  S  S  S  S  S  S  S
|-20p14----19p14----14h19p14-14----19-19p14----19p14----19p14-14-19p14-|
|-------17-------17-------------17----------17-------17----------------|
|----------------------------------------------------------------------|
|----------------------------------------------------------------------|
|----------------------------------------------------------------------|
|----------------------------------------------------------------------|
  4  1  2  4  1  2  1  4  1  1  2  4  4  1  2  4  1  2  4  1  1  4  1




Figure 11
      |-3-|  |-3-|  |-3-|  |-3-|   Q  a  Q  H
 E    E E E  E E E  E E E  E E E
---|-----------------------------|-7-10/12\10-|
---|-10p8---10p8---10p8---10p8---|-7-10/12\10-|
-7-|------7------7------7------7-|------------|
---|-----------------------------|------------|
---|-----------------------------|------------|
---|-----------------------------|------------|
 1   4  2 1 4  2 1 4  2 1 4  2 1   1 3 /3 \3




Figure 12
      (E)         (A)         (D)      (Em)
  S    S  S  S  S  S  S  S  S  S  S  S  S  S  S  S  S
----|-------------------------------------------------|
----|-------------------------------------------------|
----|-------------------------11h14p11----12h16p12----|
----|-------------11h14p11-------------12----------14-|
----|-11h14p11-------------12-------------------------|
-12-|----------12-------------------------------------|
 2    1  4  1  2  1  4  1  2  1  4  1  2  1  4  1  2


  (E)         (A)         (D)            (Em)
   S  S  S  S  S  S  S  S  a  S  S  S  S  Q
|-------------14h17p14----17/19-17-15----------|
|-14h17p14-------------15-------------17b19~---|
|----------14----------------------------------|
|----------------------------------------------|
|----------------------------------------------|
|----------------------------------------------|
  1  4  1  1  1  4  1  2  3 /3  1  1  3



6th /July /05
I'd love comments and rumours at Maitinin@gmail.com!
Comments