Metallica - King Nothing Chords & Tabs

 

King Nothing Chords & Tabs

Metallica Chords & Tabs

Version: 3 Type: Tab 0 ratings
1 star 2 stars 3 stars 4 stars 5 stars
comments

King Nothing Tab

Metallica

Load,(1996),Elektra

Kirk Hammet,James Hetfeild,Lars Ulrich,Jason Newsted

King Nothing

Intro:

|---------------------------------------------------------|
|-17~~~~-17~~~~-17~~~~-17~~~~17~~~~-17~~~~-17~~~~-17~~~~--|
|---------------------------------------------------------|
|---------------------------------------------------------|
|---------------------------------------------------------|
|---------------------------------------------------------|

|-----------------------------|---------------------------|
|-----------------------------|---------------------------|
|-----------------------------|---------------------------|
|-----------------5-----------|-------5-------8---7-------|
|--5--6--7-----7-----7--------|----7-----7----------------|
|--0--0--0--0-----------------|-0-----------6---5---------|

Pre-Verse:
|-----------------------------|----------------------------------|
|-12--12b--------12--12b------|----------------------------------|
|-12--12b--------12--12b------|----1214p12--1214p12--1214p12-----|
|---------14~~~----------14~~~|-14--------14-------14-------14---|
|-----------------------------|----------------------------------|
|-----------------------------|----------------------------------|

Verse:
|-----------------------------|---------------------------|
|-----------------------------|---------------------------|
|-----------------------------|---------------------------|
|-----------------------------|---------------------------|
|--X--2--5--2------8--7-------|--X--2--5--2------8--7-----|
|--X--0--3--0--/6--6--5--0----|--X--0--3--0--/6--6--5--0--|

|-----------------------------|---------------------------|
|-----------------------------|---------------------------|
|-----------------------------|---------------------------|
|-----------------------------|---------------------------|
|--X--2--5--2------8--7-------|--X--2--5--2------8--7--5--|
|--X--0--3--0--/6--6--5--0----|--X--0--3--0--/6--6--5--3--|

|-----------------------------|---------------------------|
|-----------------------------|---------------------------|
|-9\---------------------9----|-9\---------------------9--|
|-----------------------------|---------------------------|
|-7\-----------/8--8--7--7----|-7\-----------/8--8--7--7--|
|----0--3b--0--/6--6--5-------|----0--3b--0--/6--6--5-----|

|-----------------------------|---------------------------|
|-----------------------------|---------------------------|
|-9\---------------------9----|-9\------------------------|
|-----------------------------|---------------------------|
|-7\-----------/8--8--7--7----|-7\-----------/8--8--7--5--|
|----0--3b--0--/6--6--5-------|----0--3b--0--/6--6--5--3--|

Pre-Chorus:
|-----------------------------|----------------------------|
|-----------------------------|----------------------------|
|-----------5~~~--------------|----------------------------|
|----/7--7--------7--7--5-----|--5---7---------------------|
|-0------------------0--0-----|--0---0-----6---------------|
|-----------------------------|---------0--6---------------|

|-----------------------------|----------------------------|
|-----------------------------|----------------------------|
|-----------5~~~--7--5--7b----|--7---5--7--7b~~~-----------|
|----/7--7--------------------|----------------------------|
|-0---------------------------|----------------------------|
|-----------------------------|----------------------12\---|

Chorus:
|-----------------------------|----------------------------|
|-----------------------------|----------------------------|
|-----------------------------|-9--9--9--9--9--9--9--9-----|
|-----------------------------|----------------------------|
|-----------------------------|-7--7--7--7--7--7--7--7-----|
|-0----0--0--0--0--0--0-------|-0--0--0--0--0--0--0--0-----|

|-----------------------------|----------------------------|
|-----------------------------|----------------------------|
|-9--9--9--9--9--9--9--9------|----------------------------|
|-----------------------------|----------------------------|
|-7--7--7--7--7--7--7--7------|-1--1--1--1--1--1--1--1-----|
|-0--0--0--0--0--0--0--0------|-1--1--1--1--1--1--1--1-----|

|-13----13----13--------------|----------------------------|
|-16b---16b---16b-----16\-----|----------------------------|
|-----------------------------|----------------------------|
|-----------------------------|----------------------------|
|-----------------------------|----------------------------|
|-----------------------------|----------------------------|

Solo:
|-12--------------14----15----|----------------------------|
|-15b-------------17b---18b---|---18\---------------/14----|
|-----------------------------|----------------------------|
|-----------------------------|----------------------------|
|-----------------------------|----------------------------|
|-----------------------------|----------------------------|
   			    Full                         Full
|-12-0-14-0-15-0-14-0----12-12-|-12-0-14-0-15-0-14-0---12-12-|
|---------------------15----15b|---------------------15---15b|
|------------------------------|-----------------------------|
|------------------------------|-----------------------------|
|------------------------------|-----------------------------|
|------------------------------|-----------------------------|
	    Full        Full				Full
|15p12-0-12--15p12-0-12-------|12-0-14-0-15-0-14-0----12-12-|
|--------15b---------15b------|--------------------15----15b|
|-----------------------------|-----------------------------|
|-----------------------------|-----------------------------|
|-----------------------------|-----------------------------|
|-----------------------------|-----------------------------|

|-17--17--17--20----------17--|----------------------------|
|-----------------20--20------|-17--17--20-----------------|
|-----------------------------|-------------19--19--19-----|
|-----------------------------|----------------------------|
|-----------------------------|----------------------------|
|-----------------------------|----------------------------|
					Full     Full
|-17--17--17--20---------17---|----------------------------|
|-----------------20--20------|-17------17-------17--------|
|-----------------------------|---------19b------19b-------|
|-----------------------------|----------------------------|
|-----------------------------|----------------------------|
|-----------------------------|----------------------------|
								
[ Tab from: http://www.guitartabs.cc/tabs/m/metallica/king_nothing_tab_ver_3.html ]
   Full Full         Full         Full 
|----------12-----------12-----------12-------|
|-15b--15b----15p12-15b----15p12-15b----15p12-|
|---------------------------------------------|
|---------------------------------------------|
|---------------------------------------------|
|---------------------------------------------|

   Full                           
|----------------------------------------------------------|
|-----12-15p12----12h15p12----12---------------------------|
|-14b----------14----------14----14-14p12----12h14-12~~~\--|
|-----------------------------------------14---------------|
|----------------------------------------------------------|
|----------------------------------------------------------|

|-----------------------------|
|-12----14-14--15--14---------|
|-12----14-14--15--14---------|
|-----------------------------|
|-----------------------------|
|-----------------------------|

   Full                           Full
|-12--12-15p12----12-15p12--------------------------------------------|
|-15b----------15----------15p12-----12h15p12-------------------------|
|--------------------------------14b----------14p12----12h14p12-14-12-|
|---------------------------------------------------14----------------|
|---------------------------------------------------------------------|
|---------------------------------------------------------------------|

|--------------------------------|-------------------------|
|--------------------------------|-------------------------|
|-14b-14--14b-14--14b-14--14b-12-|-------------------------|
|--------------------------------|-14~~~~~~~~~~~~~~~~~~~~~-|
|--------------------------------|-------------------------|
|--------------------------------|-------------------------|

|-----------------------------|-12-------------------12\---|
|------------------------12---|-12-------------------12\---|
|------------------------12---|----------------------------|
|-~~~~~~~~~~~~~~~~~~----------|----------------------------|
|-----------------------------|----------------------------|
|-----------------------------|----------------------------|

Interlude:
|-----------------------------|----------------------------|
|-----------------------------|----------------------------|
|-----------------------------|----------------------------|
|--h2-------------------------|---h5-----------------------|
|-----------------------------|----------------------------|
|-----------------------------|----------------------------|
 			       	
|--------0--------------0-----|------------------0---------|
|-------------3-/5------------|---3-----------------3/5----|
|-----------------------------|----------------------------|
|-----------------------------|----------------------------|
|-----------------------------|----------------------------|
|--0--------------------------|----------------------------|

|-----------------------------|----------------------------|
|-----------------------------|----------------------------|
|-----------------------------|----------------------------|
|-0h4-------------------------|-0h3------------------------|
|-----------------------------|----------------------------|
|-----------------------------|----------------------------|
    			       
|-------------2---------------|-----------------0----------|
|--2-------------2b------2-\--|-\1-------------------------|
|-----------------------------|----------------------------|
|-----------------------------|----------------------------|
|-----------------------------|----------------------------|
|-----------------------------|---------------------3---1--|

|-----------------------------|----------------------------|
|-----------------------------|----------------------------|
|-----------------------------|----------------------------|
|-0h2-------------------------|-0h5------------------------|
|-----------------------------|----------------------------|
|-----------------------------|----------------------------|
	
|---------------3----------3--|----------------0---3----0--|
|---------3-/5------3-/5------|--5-\3----------------------|
|-----------------------------|-----------0----------------|
|-----------------------------|----------------------------|
|-----------------------------|----------------------------|
|--0--------------------------|----------------------------|

|-----------------------------|----------------------------|
|-----------------------------|----------------------------|
|-----------------------------|----------------------------|
|-0h4-------------------------|-0h7------------------------|
|-----------------------------|----------------------------|
|-----------------------------|-----------------------19\--|
 
|----------0------------------|--0----------0------0-------|
|---------------2b-------2----|-------------1------1-------|
|-----------------------------|----------------------------|
|-----------------------------|----------------------------|
|-----------------------------|----------------------------|
|--2--------------------------|--------2-------------------|

Outro:
|-----------------------------|----------------------------|
|----0--0---------0--0--------|---0--2p0---0-2-0---0-2-0---|
|----0--0---------0--0--------|---0--2p0---0-2-0---0-2-0h1-|
|----------2~~~---------2~~~--|-2--------2-------2---------|
|-----------------------------|----------------------------|
|-0---------------------------|----------------------------|
 
|-----------------------------|----------------------------|
|----0--0---------0--0--------|---0------------------------|
|----0--0---------0--0--------|---0-0h2p0---0h2p0---4b-----|
|----------2~~~---------2~~~--|-----------2-------2----5~~-|
|-----------------------------|----------------------------|
|-0---------------------------|----------------------------|
								
|-----------------------------|----------------------------|
|----0--0---------0--0--------|---0-2p0---2p0--------------|
|----0--0---------0--0--------|---0-2p0---2p0---2b--2--0---|
|----------2~~~---------2~~~--|---------2-----2------------|
|-----------------------------|----------------------------|
|-0---------------------------|----------------------------|
  							           
|-----------------------------|----------------------------|
|----0--0---------0--0--------|---0------------------------|
|----0--0---------0--0--------|---0--0h2p0---0h2p0---4b----|
|----------2~~~---------2~~~--|------------2-------2----5~~|
|-----------------------------|----------------------------|
|-0---------------------------|----------------------------|
						
This Is A Great Song From The Greatest Band Ever!!!

This Is Totally Correct But I Do not Know About The Solo It May Be Wrong I Doubt It. Thanx

-ME25-ZW
Comments