Metallica - King Nothing Chords & Tabs

 

King Nothing Chords & Tabs

Metallica Chords & Tabs

Version: 3 Type: Bass Tab 1 rating
1 star 2 stars 3 stars 4 stars 5 stars
comments

King Nothing Bass Tab

   
tabb by martinez
king nothing
metallica

ok this is difficult you had to lear how to be faster to listen very well at the
drumsthis tab is perfect well i see in a video jason playing like this so here we
go!.... just one thing if you question what is A,E and all those things well this
is modules( in spanish is modulos)i donīt speak very well english so.... bah! here is the tab. 

A                                                                
Gb--|-----------------------------|--------------------------
Db--|*----------------------5-----|----------5------8--------
Ab--|*-----5--6--7-----5/7-----7--|-----5/7-----7\-----------
Eb--|---0-----------0-------------|--0----------/6-----5-----
                                                                        

        8x                                                              
------||--||--------------------------|-------------------------------
--7--*||--||*-------------------------|----------------8-----7--------
-----*||--||*-----5--6--7--7\---------|-------------------------------
------||--||---0-------------0--3--0--|--0--0--3--0/6-----5-----------
                                                                        

     4x       B                                                         
Gb---||--||--------------------------|-------------------------|--------
Db--*||--||*-------------------------|-------------------------|--------
Ab--*||--||*-------------------------|-------------------------|--------
Eb---||--||---0--0--3--0/6--6--5--0--|--1--0--3--0/6--6--5--0--|--1-----
                                                                        

                                                                        
Gb----------------------|-------------------------|---------------------
Db----------------------|-------------------------|---------------------
Ab----------------------|-------------------------|---------------------
Eb--0--3--0/6--6--5--0--|--1--0--3--0/6--6--5--3--|--0--0--3--0/6--6----
                                                                        

                                                                        
Gb--------|-------------------------|-------------------------|---------
Db--------|-------------------------|-------------------------|---------
Ab--------|-------------------------|-------------------------|---------
Eb--5--0--|--1--0--3--0/6--6--5--x--|--1--0--3--0/6--6--5--x--|--1------
                                                                        

                             C                                          
Gb-----------------------||--------------------------|------------------
Db-----------------------||--------------7-----------|-----7------------
Ab-----------------------||--------------------------|--------7--6------
Eb--0--3--0--6--6--5--3--||--5--5--5--5-----5--5--5--|--5---------------
                                                                        

                                                                 D      
Gb-----------|--------------------------|---------------------|---------
Db-----------|--------------7-----------|-------7-------------|---------
Ab-----6--6--|--------------------------|----------7--6-----6\|---------
Eb-----------|--5--5--5--5-----5--5--5--|--(5)----------------|--0------
                                                                        

                                                                        
Gb--------------------|--------------------------|----------------------
Db--------------------|--------------------------|----------------------
Ab--7--7-----7-----7--|--3-----3--3--3--3--3--3--|----------------------
Eb--------0-----0-----|--------------------------|--7-----7--7--7--7----
                                                                        

                                                                        
Gb----------|----------------------------|------------------------------
Db----------|----------------------------|------------------------------
Ab----------|--------------------7--7----|--------7--7--7-----7---------
Eb--7--7/5--|--5--5--3--2--1--0--------5\|--0--0-----------0-----0------
                                                                        

                                                                        
Gb-----|-----------------------------|-----------------------------|----
Db-----|-----------------------------|-----------------------------|----
Ab--7--|-----------------------------|-----------------------------|----
Eb-----|--3--3--3--3--3--3--3--5--3--|--2--2--2--2--2--2--2--3--2--|----
                                                                        

                               1st (3rd to CODA)                        
Gb--------------------------|--------------------|----------------------
Db--------------------------|--------------------|----------------------
Ab--------------------------|--------------------|-----5--6--7--7\------
Eb--1--1--1--1--1--1--1--1--|--1--------------x--|--0-------------0-----
                                                                        

                                                                        
Gb--------|-------------------------|-------------------------|---------
Db--------|----------------8-----7--|-------------------------|---------
Ab--------|-------------------------|-----5--6--7--7\---------|---------
Eb--3--0--|--0--0--3--0/6-----5-----|--0-------------0--3--0--|--0------
                                                                        
[ Tab from: http://www.guitartabs.cc/tabs/m/metallica/king_nothing_btab_ver_3.html ]
                                                                        
Gb----------------------|-------------------------|---------------------
Db-------------8-----7--|-------------------------|----------------8----
Ab----------------------|-----5--6--7--7\---------|---------------------
Eb--0--3--0/6-----5-----|--0-------------0--3--0--|--0--0--3--0/6-------
                                                                        

                                                                        
Gb--------|-------------------------|--------------------------||-------
Db-----7--|-------------------------|----------------8-----7--*||-------
Ab--------|-----5--6--7--7\---------|-------------------------*||-------
Eb--5-----|--0-------------0--3--0--|--0--0--3--0/6-----5------||-------
                                                                        

    2nd                   E                                             
Gb--------------------||-------------------------|----------------------
Db--1--------------x--||-------------------------|-------------8--------
Ab--------------------||-----5--6--7--7\---------|----------------------
Eb--------------------||--0-------------0--3--0--|--0--0--3--0/---5-----
                                                                        

                                                                        
Gb-----|-------------------------|-------------------------|------------
Db--7--|-------------------------|----------------8-----7--|------------
Ab-----|-----5--6--7--7\---------|-------------------------|-----5------
Eb-----|--0-------------0--3--0--|--0--0--3--0/6-----5-----|--0---------
                                                                        

                                                                        
Gb-------------------|-------------------------|------------------------
Db-------------------|----------------8-----7--|------------------------
Ab--6--7--7/---------|--------3----------------|-----5--6--7--7\--------
Eb----------0--3--0--|--0--0-----0/6-----5-----|--0-------------0--3----
                                                                        

                                  half time feel                        
Gb-----|----------------------||-----------------------------|----------
Db-----|-------------8-----7--||-----------7-----7-----------|-----7----
Ab-----|----------------------||-----------------------------|----------
Eb--0--|--0--0--3--0/---5-----||--5--5--5-----5-----5--5--5--|--5-------
                                                                        

                                                                        
Gb---------------------|-----------------------------|------------------
Db---------------------|-----------7-----7-----------|--7---------------
Ab--7--6-----5h6--5h6--|-----------------------------|-----7--6---------
Eb---------------------|--5--5--5-----5-----5--5--5--|------------------
                                                                        

                                                                        
Gb--|-------------------------|-------------------------|---------------
Db--|-------------------------|-------------------------|---------------
Ab--|-------------------------|-------------------------|---------------
Eb--|--0--0--3--0/6--6--5--0--|--1--0--3--0/6--6--5--0--|--1--0--3------
                                                                        

                                                                        
Gb----------------|-------------------------|--------||-----------------
Db----------------|-------------------------|--------||*----------------
Ab----------------|-------------------------|--------||*-----5--6--7----
Eb--0/6--6--5--0--|--1--0--3--0/6--6--5--3--|--0-----||---0-------------
                                                                        

                                              4x          F             
Gb----------------|---------------------------||--||--------------------
Db----------5-----|----------5------8-----7--*||--||*-------------------
Ab-----5/7-----7--|-----5/7-----7\-----------*||--||*--------5--6--7----
Eb--0-------------|--0----------/6-----5------||--||------0-------------
                                                                        

                                              4x                        
Gb----------------|---------------------------||--||--------------------
Db----------5-----|----------5------8-----7--*||--||*-------------------
Ab-----5/7-----7--|-----5/7-----7\-----------*||--||*-----5--6--7--7----
Eb--0-------------|--0----------/6-----5------||--||---0----------------
                                                                        

                                         4x     CODA                    
Gb------------|--------------------------||-----------------|-----------
Db------------|----------------8-----7--*||-----------------|-----------
Ab--\---------|-------------------------*||-----------------|-----------
Eb---0--3--0--|--0--0--3--0/6-----5------||-----1--------0--|--0--------
                                                                        

                                   G                                    
Gb--|--------|--------|--------||--||---------------------------|-------
Db--|--------|--------|--------||--||*--------------------------|-------
Ab--|--------|--------|--------||--||*-----5--6--7--7-----------|-------
Eb--|--------|--------|--------||--||---0--------------0--3--0--|--0----
                                                                        

                                                                        
Gb------------------------||-----------||-------------------------------
Db--------------8-----7--*||-----------||-------------------------------
Ab-----------------------*||-----------||-------------------------------
Eb--0--3--0--6-----5------||--0--------||-------------------------------
Comments