Metallica - Jump In The Fire Chords & Tabs

 

Jump In The Fire Chords & Tabs

Metallica Chords & Tabs

Version: 3 Type: Tab 9 ratings
1 star 2 stars 3 stars 4 stars 5 stars
comments

Jump In The Fire Tab

Jump in the fire off Kill 'em all By Metallica

This is correct all the other intro's were off and some other bits 'n' pieces

No exact indication of timing, just listen to the song for the timing

Intro riffs

e------------------|       
B------------------|       
G------------------|       
D---------3--------|   x2  
A-----3-4---5-4-3p0|       
E-3-6--------------|       


e---------------------------------|   
B---------------------------------|   
G----------------------x-5----x-3-|
D---------3------------x-5----x-3-|
A-----3-4---5-4-3------x-3----x-1-|  
E-3-6-----------------------------|  


e---------------------------------------------------|
B---------------------------------------------------|
G---------------------------------------------------|
D---------3-----------------3-------3-------3-------|
A-----3-4---5-4-3p0-----3-4---5-4-3---5-4-3---5-4-3-|
E-3-6---------------3-6-----------------------------|


e------------|   
B------------|   
G-x-5----x-3-|
D-x-5----x-3-|
A-x-3----x-1-|  
E------------|  

                             this bit may sound weird at first but its right
e----------------------------------|--------------------------------------|
B----------------------------------|--------------------------------------|
G----------------------------------|--------------------------------------|
D---------3----------------3-------|-3h5p3---3--------------------3-5~~~~-|
A-----3-4---5-4-3p0----3-4---5-4-3-|-------5---5-4-4-3------3-4-5---------|
E-3-6---------------3-6------------|--------------------3-6---------------|


e---------------------------------------------------|
B---------------------------------------------------|
G---------------------------------------------------|
D---------3-----------------3-------3-------3-------|
A-----3-4---5-4-3p0-----3-4---5-4-3---5-4-3---5-4-3-|
E-3-6---------------3-6-----------------------------|


e------------|   
B------------|   
G-x-5----x-3-|
D-x-5----x-3-|
A-x-3----x-1-|  
E------------| 



Verse riff A

e---------------------------|
B---------------------------|
G--------------3------------|
D--------------3----3-3-3---|
A--------------1----3-3-3---|
E-1-3-3-1-3-0-------1-1-1---|


e---------------------------|
B---------------------------|
G-------------5-x-x5s6------|
D-------------5-x-x5s6------|
A-------------3-x-x3s4------|
E-1-3-3-1-3-0---------------|


Verse riff B

e------3------------|-------------------|---------|
B--------6-3---3-6-3|-----3-6-3---------|-6b8-----|
G--5b7-------5------|---5-------5-3---3-|---------|
D-------------------|---------------5---|---------|
A-------------------|-------------------|---------|
E-------------------|-------------------|---------|

Back to the main riff A

Repeat a few times then:

e---------------------------|
B---------------------------|
G--------------3------------|
D--------------3----3-3-3---|
A--------------1----3-3-3---|
E-1-3-3-1-3-0-------1-1-1---|


e---------------------------|
B---------------------------|
G-------------5--x-6-6-------|
D-------------5--x-6-6-------|
A-------------3--x-4-4-------|
E-1-3-3-1-3-0----------------|

Back to intro  riffs

Then solo backing riff
  

e---------------------------|---------------------------|
B---------------------------|---------------------------|
G---------------------------|---------------------------|
D-8-8-8-8--8-8-8-8--6---8---|-5-5-5-5--5-5-5-5--3---5---|
A-8-8-8-8--8-8-8-8--6---8---|-5-5-5-5--5-5-5-5--3---5---|
E-6-6-6-6--6-6-6-6--4---6---|-3-3-3-3--3-3-3-3--1---3---|


Solo 1

e-------------------------|------------------------|--3-------------|
B-6p3p0-------6p3p0-------|6p3p0-------6p3p0-------|3-3---------6-3-|
G-------5p3p0-------5p3p0-|------5p3p0-------5p3p0-|----------------|
D-------------------------|------------------------|----------------|
A-------------------------|------------------------|----------------|
E-------------------------|------------------------|----------------|


e-----3-----------|--3------------------------------|
B---3-----6---3---|----6-3------------------------15|
G-5--------------5|7-------5-5-3------3-/15-17-19---|
D-----------------|--------------5------------------|
A-----------------|---------------------------------|
E-----------------|---------------------------------|


e-15---------------------------|-----------------|------------------|
B----18-15---------------------|-----------------|--------------0---|
G----------17-15-17-15----15---|--3-----15-----3-|----15---15---0--5|
D----------------------17------|--3-----15-----3-|----15---15---0---|
A------------------------------|-----------------|------------------|
E------------------------------|-----------------|------------------|


e----------------------------|------------------------|
B---3-6-3---3---6-3-----3-6-3|----6-3-----------------|
G-7-------5---------5--------|5-4-----5-3---3-5-5-7-3-|
D----------------------------|------------5-----------|
A----------------------------|------------------------|
E----------------------------|------------------------|


e-------------------|-----------------------|
B-------------------|-----------------------|
G---3-5-3-----------|-----------------------|
D---------5-3-------|-----------------------|
A-------------5-3-1-|3-5-3-1---1------------|
E-------------------|--------3----3/15-(12)-|


e------------------------------|--------------------------|
B-17-18-17-15----15---17-18-17-|15----15---17-18-17-15----|
G-17-19-17-15----15---17-19-17-|15----15---17-19-17-15----|
D-------------17---------------|---17------------------17-|
A------------------------------|--------------------------|
E------------------------------|--------------------------|


e------------15----------------|-------------------------||
B---------------18-15----------|-------------18-20-------||
G-15-17-19------------17-15----|15-17-19-15--------------||
D---------------------------17-|-------------------------||
A------------------------------|-------------------------||
E------------------------------|-------------------------||

Then verse fiff A

Then back to intro riffs

Then back to verse riff A for the solo

Outro solo

e|------------------------------------------------|
B|------------------------------------------------|
G|-----------------------------------------15-17--|
D|--------------------15-15-17p15----15-17--------|
A|--------13-13-15/17-------------17--------------|
E|--13h15-----------------------------------------|


e|--------------------------18p15-------------------|
B|-----------------15-18p15-------18p15----15-18p15-|
G|--17p15----15-17b---------------------17b---------|
D|--------17----------------------------------------|
A|--------------------------------------------------|
E|--------------------------------------------------|


e|--18p15-------------------18p15-------------------|
B|--------18p15----15-18p15-------18p15----15-15-18-|
G|--------------17b---------------------17b---------|
D|--------------------------------------------------|
A|--------------------------------------------------|
E|--------------------------------------------------|


e|---------------------------------|---------------18b-----18b--|
B|--18p15--------------------------|--18b---18r-15--------------|
G|--------17--15------15--17b------|----------------------------|
D|----------------17------------0--|----------------------------|
A|---------------------------------|----------------------------|
E|---------------------------------|----------------------------|


e|--18r--15-----15------------15--|-18p15----15-18p15---------------------------|
B|----------18------18b---18b-----|-------18----------18p15-18p15---------------|
G|--------------------------------|-------------------------------17--15-----15-|
D|--------------------------------|---------------------------------------17----|
A|--------------------------------|---------------------------------------------|
E|--------------------------------|---------------------------------------------|
[ Tab from: http://www.guitartabs.cc/tabs/m/metallica/jump_in_the_fire_tab_ver_3.html ]

e|----------------------------|---------------------------------|
B|------18------18~---18--15--|-18b---18r15---------------------|
G|--15--17b-----17b---19------|-------------17--15------15--17b-|
D|----------------------------|---------------------17----------|
A|----------------------------|---------------------------------|
E|----------------------------|---------------------------------|


e|--------------------------------|-----------------------------------|
B|--------------------------------|-----15--18p15---------------------|
G|---15-----15--17b-15r-------15--|-17b-----------17--15------15--17r-|
D|------17----------------17------|-----------------------17----------|
A|--------------------------------|-----------------------------------|
E|--------------------------------|-----------------------------------|


e|--------------------------------|---------------------------------------------|
B|--------------------------------|-----15--18p15-18p15----15-18p15-18p15----15-|
G|---15-----15--17b-15r-------15--|-17b-----------------17b---------------17b---|
D|------17----------------17------|---------------------------------------------|
A|--------------------------------|---------------------------------------------|
E|--------------------------------|---------------------------------------------|


e|--------------------------------------------------|
B|--18p15-18p15----15-18p15-18p15----15-18p15----15-|
G|--------------17b---------------17----------17----|
D|--------------------------------------------------|
A|--------------------------------------------------|
E|--------------------------------------------------|


e|--------------------------------------------------|
B|--18p15----15-18p15-18p15----15-18p15-18p15----15-|
G|--------17----------------17----------------17----|
D|--------------------------------------------------|
A|--------------------------------------------------|
E|--------------------------------------------------|


e|-----------------------------------0--15--|
B|--18p15-18p15-15h18p15-18p15-18b----------|
G|------------------------------------------|
D|------------------------------------------|
A|------------------------------------------|
E|------------------------------------------|


e|--17-15-15-15-18-15-15-15-20-15-15-15-18-15-15-15-|
B|--------------------------------------------------|
G|--------------------------------------------------|
D|--------------------------------------------------|
A|--------------------------------------------------|
E|--------------------------------------------------|


e|--17-15-15-15-18-15-15-15-20-15-15-15-18-15-15-15-|
B|--------------------------------------------------|
G|--------------------------------------------------|
D|--------------------------------------------------|
A|--------------------------------------------------|
E|--------------------------------------------------|


e|--17-15-15-15-18-15-15-15-20-15-15-15-18-15-15-15-|
B|--------------------------------------------------|
G|--------------------------------------------------|
D|--------------------------------------------------|
A|--------------------------------------------------|
E|--------------------------------------------------|


e|--17-15-15-15-18-15-15-15-20-15-15-15-18-15-15-15-|
B|--------------------------------------------------|
G|--------------------------------------------------|
D|--------------------------------------------------|
A|--------------------------------------------------|
E|--------------------------------------------------|


e|--17-15-15-15-18-15-15-15-20-15-15-15-22-15-15-15-|
B|--------------------------------------------------|
G|--------------------------------------------------|
D|--------------------------------------------------|
A|--------------------------------------------------|
E|--------------------------------------------------|


e|--20-15-15-15-18-15-15-15-17-15-15-15-18-15-15-15-|
B|--------------------------------------------------|
G|--------------------------------------------------|
D|--------------------------------------------------|
A|--------------------------------------------------|
E|--------------------------------------------------|


e|--20-15-15-15-18-15-15-15-17-15-15-15-18-15-15-15-| 
B|--------------------------------------------------|
G|--------------------------------------------------|
D|--------------------------------------------------|
A|--------------------------------------------------|
E|--------------------------------------------------|


e|--20-15-15-15-18-15-15-15-17-15-15-15-18-15-15-15-| 
B|--------------------------------------------------|
G|--------------------------------------------------|
D|--------------------------------------------------|
A|--------------------------------------------------|
E|--------------------------------------------------|


e|--18p15--------18p15-15h18p15----15-18p15-18p15-----15-|
B|--------18p15-----------------18-----------------18----|
G|-------------------------------------------------------|
D|-------------------------------------------------------|
A|-------------------------------------------------------|
E|-------------------------------------------------------|


e|--18P15-18P15------15-18P15-18P15-----15-18P15-18------|
B|---------------18------------------18------------------|
G|-------------------------------------------------------|
E|-------------------------------------------------------|
A|-------------------------------------------------------|
E|-------------------------------------------------------|


e|--18b--18b---18p15------15--18b---|---15-----15--18--18b--18b-15r-|
B|--------------------18------------|------18-----------------------|
G|----------------------------------|-------------------------------|
D|----------------------------------|-------------------------------|
A|----------------------------------|-------------------------------|
E|----------------------------------|-------------------------------|


e|--18p15-----15----------------------------|----------------------------------|
B|--------18-----18-15-18p15-----15---------|----------------------------------|
G|-----------------------------17-----17-15-|--17p15-----15----15-17-17b---15--|
D|------------------------------------------|---------17----17-----------------|
A|------------------------------------------|----------------------------------|
E|------------------------------------------|----------------------------------|


e|---------------------------------------------|-------------------------------|
B|-----------------------------17b~------------|-------------------------------|
G|-----15--17p15-----15-17-15--17b~----17-15---|---17p15-----------------------|
D|--17------------17---------------------------|---------17-15-----------------|
A|---------------------------------------------|----------------17-15-13-15-13-|
E|---------------------------------------------|-------------------------------|


e|----------------------------------------|------------------------------------|
B|----------------------------------------|------------------------------------|
G|----------------------------------------|----------------15-17-17b-15r-------|
D|----------------------------------------|---------15-17----------------------|
A|--15b-13r----13~------------------13----|--15/17-----------------------------|
E|---------15-------------------15--------|------------------------------------|

                                                            fade out
e|-----------------------------------------------------------------------------|
B|-----------------------------------18------18------18--18b~ full-------------|
G|--17-15------15~-------15-17bfull------17b-----17b-----17b~ full-------------|
D|---------17---------17-------------------------------------------------------|
A|-----------------------------------------------------------------------------|
E|-----------------------------------------------------------------------------|

Have fun

From Metal up ya ass!
Comments