Metallica - Jump In The Fire Chords & Tabs

 

Jump In The Fire Chords & Tabs

Metallica Chords & Tabs

Version: 1 Type: Tab 2 ratings
1 star 2 stars 3 stars 4 stars 5 stars
comments

Jump In The Fire Tab

Jump in the Fire
By MetallicA
Kill em ALL!!!
tab by Kid Texas

 Guitar 1
|-----------------|----------------|----------------|----------------|
|-----------------|----------------|----------------|----------------|
|-----------------|----------------|----------------|x-5-----x-3-----|
|---------3-------|--------3-------|--------3-------|x-5-----x-3-----|
|-----3-4---5-4-3-|----3-4---5-4-3-|----3-4---5-4-3-|x-3-----x-1-----|
|-3-6-------------|3-6-------------|3-6-------------|x-------x-------|
|
|
|Guitar 2
|-----------------|----------------|----------------|----------------|
|-----------------|----------------|----------------|----------------|
|-----------------|----------------|----------------|x-5-----x-3-----|
|---------3-------|--------3-------|--------3-------|x-5-----x-3-----|
|-----3-4---5-4-3-|----3-4---5-4-3-|----3-4---5-4-3-|x-3-----x-1-----|
|-3-6-------------|3-6-------------|3-6-------------|x-------x-------|



|-----------------|----------------|----------------|-----------------|
|-----------------|----------------|----------------|-----------------|
|-----------------|----------------|----------------|---5-------3-----|
|---------3-------|--------3-------|3-------3-------|---5-------3-----|
|-----3-4---5-4-3-|----3-4---5-4-3-|--5-4-3---5-4-3-|---3-------1-----|
|-3-6-------------|3-6-------------|----------------|-----------------|
|
|
|-----------------|----------------|----------------|-----------------|
|-----------------|----------------|----------------|-----------------|
|-----------------|----------------|----------------|---5-------3-----|
|---------3-------|--------3-------|3-------3-------|---5-------3-----|
|-----3-4---5-4-3-|----3-4---5-4-3-|--5-4-3---5-4-3-|---3-------1-----|
|-3-6-------------|3-6-------------|----------------|-----------------|



|-----------------|----------------|----------------|------------------|
|-----------------|----------------|----------------|------------------|
|-----------------|----------------|----------------|------------------|
|---------3-------|--------3-------|3-h5-3---3------|-----------3-5----|
|-----3-4---5-4-3-|----3-4---5-4-3-|-------5---5-4-3|-----3-4-5--------|
|-3-6-------------|3-6-------------|----------------|-3-6--------------|
|
|
|-----------------|----------------|----------------|------------------|
|-----------------|----------------|----------------|------------------|
|-----------------|----------------|----------------|------------------|
|---------3-------|--------3-------|3-h5-3---3------|-----------3-5----|
|-----3-4---5-4-3-|----3-4---5-4-3-|-------5---5-4-3|-----3-4-5--------|
|-3-6-------------|3-6-------------|----------------|-3-6--------------|



|-----------------|----------------|----------------|
|-----------------|----------------|----------------|
|-----------------|----------------|----------------|
|---------3-------|--------3-------|3-------3-------|
|-----3-4---5-4-3-|----3-4---5-4-3-|--5-4-3---5-4-3-|
|-3-6-------------|3-6-------------|----------------|
|
|
|-----------------|----------------|----------------|
|-----------------|----------------|----------------|
|-----------------|----------------|----------------|
|---------3-------|--------3-------|3-------3-------|
|-----3-4---5-4-3-|----3-4---5-4-3-|--5-4-3---5-4-3-|
|-3-6-------------|3-6-------------|----------------|



|--------------------|-----------------|--------------|
|--------------------|-----------------|--------------|
|----5-------3-------|------------3----|--------------|
|----5-------3-------|------------3----|--3---3---3---|
|----3-------1-------|------------1----|--3---3---3---|
|--------------------|1-3-3-1-3-0------|--1---1---1---|
|
|
|-------------------|-----------------|--------------|
|-------------------|-----------------|--------------|
|---5-------3-------|------------3----|--------------|
|---5-------3-------|------------3----|--3---3---3---|
|---3-------1-------|------------1----|--3---3---3---|
|-------------------|1-3-3-1-3-0------|--1---1---1---|



|-------------------|------------------|----------------|
|-------------------|------------------|----------------|
|-------------5-----|x-x-x-6-----------|------3---------|
|-------------5-----|x-x-x-6-----------|------3------3--|
|-------------3-----|x-x-x-4-----------|------1------3--|
|-1-3-3-1-3-0-------|------------1-3-3-|1-3-0--------1--|
|
|
|-------------------|------------------|----------------|
|-------------------|------------------|----------------|
|-------------5-----|x-x-x-6-----------|------3---------|
|-------------5-----|x-x-x-6-----------|------3------3--|
|-------------3-----|x-x-x-4-----------|------1------3--|
|-1-3-3-1-3-0-------|------------1-3-3-|1-3-0--------1--|


                                                       Verse 1
|-----------------------|-------------------|---------| ---------|
|-----------------------|-------------------|---------| ---------|
|-----------------------|-------5------x-x-x|---6-----|*---------|
|-3---3-----------------|-------5------x-x-x|---6-----|*---------|
|-3---3-----------------|-------3------x-x-x|---4-----| ---------|
|-1---1------1-3---3---1|-3---0-------------|---------| 1-3-3-1-3|
|
|
|----------3------------|-------------------|---------| ---------|
|------------6-3---3-6-3|-----3-6-3---------|-6b8-----| ---------|
|------5b7-------5------|---5-------5-3---3-|---------|*---------|
|-----------------------|---------------5---|---------|*---------|
|-----------------------|-------------------|---------| ---------|
|-----------------------|-------------------|---------| 1-3-3-1-3|



|----------------|----------------|----------------|----- 2|
|----------------|----------------|----------------|----- ||
|---3------------|----------------|--5-----x-x-x-6-|-----*||
|---3------3---3-|--3-------------|--5-----x-x-x-6-|-----*||
|---1------3---3-|--3-------------|--3-----x-x-x-4-|----- ||
|-0--------1---1-|--1---1-3-3-1-3-|0---------------|----- ||
|
|
|----------------|----------------|----------------|----- 2|
|----------------|----------------|----------------|----- ||
|---3------2---2-|--2-------------|--5-----x-x-x-6-|-----*||
|---3------3---3-|--3-------------|--5-----x-x-x-6-|-----*||
|---1------3---3-|--3-------------|--3-----x-x-x-4-|----- ||
|-0--------1---1-|--1---1-3-3-1-3-|0---------------|----- ||



|------------|----------------|----------------|-------------------|
|------------|----------------|----------------|-------------------|
|------------|-3--------------|----------------|5-----------6---6-x|
|------------|-3------3---3---|3---------------|5-----------6---6-x|
|------------|-1------3---3---|3---------------|3-----------4---4-x|
|-1-3-3-1-3-0|--------1---1---|1---1-3-3-1-3-0-|-------------------|
|
|
|------------|----------------|----------------|-------------------|
|------------|----------------|----------------|-------------------|
|------------|-3--------------|----------------|5-----------6---6-x|
|------------|-3------3---3---|3---------------|5-----------6---6-x|
|------------|-1------3---3---|3---------------|3-----------4---4-x|
|-1-3-3-1-3-0|--------1---1---|1---1-3-3-1-3-0-|-------------------|


 Chorus
|-----------------|----------------|----------------|----------------|
|-----------------|----------------|----------------|----------------|
|-----------------|----------------|----------------|--5-------3-----|
|---------3-------|--------3-------|--------3-------|--5-------3-----|
|-----3-4---5-4-3-|----3-4---5-4-3-|----3-4---5-4-3-|--3-------1-----|
|-3-6-------------|3-6-------------|3-6-------------|----------------|
|
|
|-----------------|----------------|----------------|----------------|
|-----------------|----------------|----------------|----------------|
|-----------------|----------------|----------------|--5-------3-----|
|---------3-------|--------3-------|--------3-------|--5-------3-----|
|-----3-4---5-4-3-|----3-4---5-4-3-|----3-4---5-4-3-|--3-------1-----|
|-3-6-------------|3-6-------------|3-6-------------|----------------|



|-----------------|----------------|----------------|----------------|
|-----------------|----------------|----------------|----------------|
|-----------------|----------------|----------------|---5-------3----|
|---------3-------|--------3-------|3-------3-------|---5-------3----|
|-----3-4---5-4-3-|----3-4---5-4-3-|--5-4-3---5-4-3-|---3-------1----|
|-3-6-------------|3-6-------------|----------------|----------------|
|
|
|-----------------|----------------|----------------|----------------|
|-----------------|----------------|----------------|----------------|
|-----------------|----------------|----------------|---5-------3----|
|---------3-------|--------3-------|3-------3-------|---5-------3----|
|-----3-4---5-4-3-|----3-4---5-4-3-|--5-4-3---5-4-3-|---3-------1----|
|-3-6-------------|3-6-------------|----------------|----------------|



|----------------|----------------|-------------------|
|----------------|----------------|-------------------|
|----------------|----------------|-------------------|
|---------3------|---------3------|-3-h5-3---3--------|
|-----3-4---5-4-3|-----3-4---5-4-3|--------5---5-4-3--|
|-3-6------------|-3-6------------|------------------3|
|
|
|----------------|----------------|-------------------|
|----------------|----------------|-------------------|
|----------------|----------------|-------------------|
|---------3------|---------3------|-3-h5-3---3--------|
|-----3-4---5-4-3|-----3-4---5-4-3|--------5---5-4-3--|
|-3-6------------|-3-6------------|------------------3|



|----------------|----------------|----------------|----------------|
|----------------|----------------|----------------|----------------|
|----------------|----------------|----------------|----------------|
|---------3-5----|--------3-------|--------3-------|3-------3-------|
|---3-4-5--------|----3-4---5-4-3-|----3-4---5-4-3-|--5-4-3---5-4-3-|
|-6--------------|3-6-------------|3-6-------------|----------------|
|
|
|----------------|----------------|----------------|----------------|
|----------------|----------------|----------------|----------------|
|----------------|----------------|----------------|----------------|
|---------3-5----|--------3-------|--------3-------|3-------3-------|
|---3-4-5--------|----3-4---5-4-3-|----3-4---5-4-3-|--5-4-3---5-4-3-|
|-6--------------|3-6-------------|3-6-------------|----------------|


                   Verse 2
|----------------|| ----------------|----------------|----------------|
|----------------|| ----------------|----------------|----------------|
|---5-------3----||*------------3---|----------------|-----------5----|
|---5-------3----||*------------3---|---3---3---3----|-----------5----|
|---3-------1----|| ------------1---|---3---3---3----|-----------3----|
|----------------|| 1-3-3-1-3-0-----|---1---1---1---1|-3-3-1-3-0------|
|
|
|----------------|| ----------------|----------------|----------------|
|----------------|| ----------------|----------------|----------------|
|---5-------3----||*------------3---|----------------|-----------5----|
|---5-------3----||*------------3---|---3---3---3----|-----------5----|
|---3-------1----|| ------------1---|---3---3---3----|-----------3----|
|----------------|| 1-3-3-1-3-0-----|---1---1---1---1|-3-3-1-3-0------|



|-------------- 2|------------------|----------------|----------------|
|-------------- ||------------------|----------------|----------------|
|-x-x-x-6------*||------------3-----|----------------|---------5------|
|-x-x-x-6------*||------------3-----|-3---3---3------|---------5------|
|-x-x-x-4------ ||------------1-----|-3---3---3------|---------3------|
|-------------- ||1-3-3-1-3-0-------|-1---1---1---1-3|-3-1-3-0--------|
|
|
|-------------- 2|------------------|----------------|----------------|
|-------------- ||------------------|----------------|----------------|
|-x-x-x-6------*||------------3-----|----------------|---------5------|
|-x-x-x-6------*||------------3-----|-3---3---3------|---------5------|
|-x-x-x-4------ ||------------1-----|-3---3---3------|---------3------|
|-------------- ||1-3-3-1-3-0-------|-1---1---1---1-3|-3-1-3-0--------|



|------------|---------------------|----------------|----------------|
|------------|---------------------|----------------|----------------|
|-----6---6-x|---------------------|----------------|--------------5-|
|-----6---6-x|---------3-----------|----3-----------|----3---------5-|
|-----4---4-x|-----3-4---5-4-3-----|3-4---5-4-3-----|3-4---5-4-3---3-|
|------------|-3-6-------------3-6-|------------3-6-|----------------|
|
|
|------------|---------------------|----------------|----------------|
|------------|---------------------|----------------|----------------|
|-----6---6-x|---------------------|----------------|--------------5-|
|-----6---6-x|---------3-----------|----3-----------|----3---------5-|
|-----4---4-x|-----3-4---5-4-3-----|3-4---5-4-3-----|3-4---5-4-3---3-|
|------------|-3-6-------------3-6-|------------3-6-|----------------|



|----------------|----------------|----------------|----------------|
|----------------|----------------|----------------|----------------|
|------3---------|----------------|----------------|---------------5|
|------3---------|----3-----------|----3-------3---|----3----------5|
|------1---------|3-4---5-4-3-----|3-4---5-4-3---5-|4-3---5-4-3----3|
|------------3-6-|------------3-6-|----------------|----------------|
|
|
|----------------|----------------|----------------|----------------|
|----------------|----------------|----------------|----------------|
|------3---------|----------------|----------------|---------------5|
|------3---------|----3-----------|----3-------3---|----3----------5|
|------1---------|3-4---5-4-3-----|3-4---5-4-3---5-|4-3---5-4-3----3|
|------------3-6-|------------3-6-|----------------|----------------|                         



|----------------|----------------|-------------------|
|----------------|----------------|-------------------|
|-------3--------|----------------|-------------------|
|-------3--------|-----3----------|-----3-------3-h5-3|
|-------1--------|-3-4---5-4-3----|-3-4---5-4-3-------|
|-------------3-6|-------------3-6|-------------------|
|
|
|----------------|----------------|-------------------|
|----------------|----------------|-------------------|
|-------3--------|----------------|-------------------|
|-------3--------|-----3----------|-----3-------3-h5-3|
|-------1--------|-3-4---5-4-3----|-3-4---5-4-3-------|
|-------------3-6|-------------3-6|-------------------|



|----------------|----------------|----------------|----------------|
|----------------|----------------|----------------|----------------|
|----------------|----------------|----------------|----------------|
|---3------------|-----3-5--------|----3-----------|----3-------3---|
|-5---5-4-3-----3|-4-5------------|3-4---5-4-3-----|3-4---5-4-3---5-|
|-----------3-6--|------------3-6-|------------3-6-|----------------|
|
|
|----------------|----------------|----------------|----------------|
|----------------|----------------|----------------|----------------|
|----------------|----------------|----------------|----------------|
|---3------------|-----3-5--------|----3-----------|----3-------3---|
|-5---5-4-3-----3|-4-5------------|3-4---5-4-3-----|3-4---5-4-3---5-|
|-----------3-6--|------------3-6-|------------3-6-|----------------|


                                    Pre-solo
|-----------------|---------------|| -----------------|----------------|
|-----------------|---------------|| -----------------|----------------|
|----------------5|-------3-------||*-----------------|----------------|
|-----3----------5|-------3-------||*8-8-8-8-8-x-8-8-8|-8-8-x-6-x-8-x-5|
|-4-3---5-4-3----3|-------1-------|| 8-8-8-8-8-x-8-8-8|-8-8-x-6-x-8-x-5|
|-----------------|---------------|| 6-6-6-6-6-x-6-6-6|-6-6-x-4-x-6-x-3|
|
|
|-----------------|---------------|| -----------------|----------------|
|-----------------|---------------|| -----------------|----------------|
|----------------5|-------3-------||*-----------------|----------------|
|-----3----------5|-------3-------||*8-8-8-8-8-x-8-8-8|-8-8-x-6-x-8-x-5|
|-4-3---5-4-3----3|-------1-------|| 8-8-8-8-8-x-8-8-8|-8-8-x-6-x-8-x-5|
|-----------------|---------------|| 6-6-6-6-6-x-6-6-6|-6-6-x-4-x-6-x-3|



|----------------|--------------- 1|----------------|----------------|
|----------------|--------------- ||----------------|----------------|
|----------------|---------------*||----------------|----------------|
|-5-5-5-5-x-5-5-5|-5-5-x-3-x-5---*||8-8-8-8-8---8-8-|8-8-8---6---8---|
|-5-5-5-5-x-5-5-5|-5-5-x-3-x-5--- ||8-8-8-8-8---8-8-|8-8-8---6---8---|
|-3-3-3-3-x-3-3-3|-3-3-x-1-x-3--- ||6-6-6-6-6---6-6-|6-6-6---4---6---|
|
|
|----------------|--------------- 1|----------------|----------------|
|----------------|--------------- ||----------------|----------------|
|----------------|---------------*||----------------|----------------|
|-5-5-5-5-x-5-5-5|-5-5-x-3-x-5---*||8-8-8-8-8-8-8-8-|8-8-8-8-8-8-8---|
|-5-5-5-5-x-5-5-5|-5-5-x-3-x-5--- ||8-8-8-8-8-8-8-8-|8-8-8-8-8-8-8---|
|-3-3-3-3-x-3-3-3|-3-3-x-1-x-3--- ||6-6-6-6-6-6-6-6-|6-6-6-6-6-6-6---|



|-----------------|----------------|------------------|
|-----------------|----------------|------------------|
|-----------------|----------------|------------------|
|-5-5-5-5-5---5-5-|5-5-5---3---5---|8-8-8-8---8---8-8-|
|-5-5-5-5-5---5-5-|5-5-5---3---5---|8-8-8-8---8---8-8-|
|-3-3-3-3-3---3-3-|3-3-3---1---3---|6-6-6-6---6---6-6-|
|
|
|-----------------|----------------|------------------|
|-----------------|----------------|------------------|
|-----------------|----------------|------------------|
|-5-5-5-5-5-5-5-5-|5-5-5-5-5-5-5---|8-8-8-8-------8-8-|
|-5-5-5-5-5-5-5-5-|5-5-5-5-5-5-5---|8-8-8-8-------8-8-|
|-3-3-3-3-3-3-3-3-|3-3-3-3-3-3-3---|6-6-6-6/-18---6-6-|



|-------------------|------------------|------------------|
|-------------------|------------------|------------------|
|-------------------|------------------|------------------|
|-8-8---8---6---8---|5-5-5-5---5---5-5-|5-5---5---3---5---|
|-8-8---8---6---8---|5-5-5-5---5---5-5-|5-5---5---3---5---|
|-6-6---6---4---6---|3-3-3-3---3---3-3-|3-3---3---1---3---|
|
|
|-------------------|------------------|------------------|
|-------------------|------------------|------------------|
|-------------------|------------------|------------------|
|-8-8-------6---8---|5-5-5-5-------5-5-|5-5-------3---5---|
|-8-8-------6---8---|5-5-5-5-------5-5-|5-5-------3---5---|
|-6-6/-18---4---6---|3-3-3-3/-15---3-3-|3-3/-15---1---3---|



|-------------------------|------------------------|----------------|
|-------------------------|------------------------|----------------|
|-------------------------|------------------------|----------------|
|-8---8-8---8-8-----8---8-|8---8-8-----6-----8-----|5-5-5-5-5---5-5-|
|-8---8-8---8-8-----8---8-|8---8-8-----6-----8-----|5-5-5-5-5---5-5-|
|-6---6-6---6-6-----6---6-|6---6-6-----4-----6-----|3-3-3-3-3---3-3-|
|
| Solo
|-------------------------|------------------------|--3-------------|
|-6p3p0-------6p3p0-------|6p3p0-------6p3p0-------|3-3---------6-3-|
|-------5p3p0-------5p3p0-|------5p3p0-------5p3p0-|----------------|
|-------------------------|------------------------|----------------|
|-------------------------|------------------------|----------------|
|-------------------------|------------------------|----------------|



|-----------------|---------------------------------|
|-----------------|---------------------------------|
|-----------------|---------------------------------|
|-5-5-5---3---5---|8---8---8---8---8------8-----8---|
|-5-5-5---3---5---|8---8---8---8---8------8-----8---|
|-3-3-3---1---3---|6---6---6---6---6------6-----6---|
|
|
|-----3-----------|--3------------------------------|
|---3-----6---3---|----6-3------------------------15|
|-5--------------5|7-------5-5-3------3-/15-17-19---|
|-----------------|--------------5------------------|
|-----------------|---------------------------------|
|-----------------|---------------------------------|                                           



|------------------------------|-----------------|------------------|
|------------------------------|-----------------|------------------|
|------------------------------|-----------------|------------------|
|--8--8-----8--------6-----8---|5-5-5-5--5---5-5-|5-5--5----3---5---|
|--8--8-----8--------6-----8---|5-5-5-5--5---5-5-|5-5--5----3---5---|
|--6--6-----6--------4-----6---|3-3-3-3--3---3-3-|3-3--3----1---3---|
|
|
|-15---------------------------|-----------------|------------------|
|----18-15---------------------|-----------------|--------------0---|
|----------17-15-17-15----15---|--3-----15-----3-|----15---15---0--5|
|----------------------17------|--3-----15-----3-|----15---15---0---|
|------------------------------|-----------------|------------------|
|------------------------------|-----------------|------------------|



|----------------------------|------------------------|
|----------------------------|------------------------|
|----------------------------|------------------------|
|-8-8-8---8---8-------8---8--|8---8---8-----6---8-----|
|-8-8-8---8---8-------8---8--|8---8---8-----6---8-----|
|-6-6-6---6---6-------6---6--|6---6---6-----4---6-----|
|
|
|----------------------------|------------------------|
|---3-6-3---3---6-3-----3-6-3|----6-3-----------------|
|-7-------5---------5--------|5-4-----5-3---3-5-5-7-3-|
|----------------------------|------------5-----------|
|----------------------------|------------------------|
|----------------------------|------------------------|



|-------------------|-----------------------|
|-------------------|-----------------------|
|-------------------|-----------------------|
|-5-5-5---5-5---5-5-|5---5-5---3-----5------|
|-5-5-5---5-5---5-5-|5---5-5---3-----5------|
|-3-3-3---3-3---3-3-|3---3-3---1-----3------|
| 
|   
|-------------------|-----------------------|
|-------------------|-----------------------|
|---3-5-3-----------|-----------------------|
|---------5-3-------|-----------------------|
|-------------5-3-1-|3-5-3-1---1------------|
|-------------------|--------3----3/15-(12)-|



|------------------------------|--------------------------|
|------------------------------|--------------------------|
|------------------------------|--------------------------|
|--8-----8--8--8--8----8-----8-|-8--8--8----6--------8----|
|--8-----8--8--8--8----8-----8-|-8--8--8----6--------8----|
|--6-----6--6--6--6----6-----6-|-6--6--6----4--------6----|
|
|
|------------------------------|--------------------------|
|-17-18-17-15----15---17-18-17-|15----15---17-18-17-15----|
|-17-19-17-15----15---17-19-17-|15----15---17-19-17-15----|
|-------------17---------------|---17------------------17-|
|------------------------------|--------------------------|
|------------------------------|--------------------------|



|------------------------------|-------------------------||
|------------------------------|-------------------------||
|------------------------------|-------------------------||
|--5--5----5--5--5--------5--5-|-5--5-----5------3---5---||
|--5--5----5--5--5--------5--5-|-5--5-----5------3---5---||
|--3--3----3--3--3--------3--3-|-3--3-----3------1---3---||
|
|
|------------15----------------|-------------------------||
|---------------18-15----------|-------------18-20-------||
|-15-17-19------------17-15----|15-17-19-15--------------||
|---------------------------17-|-------------------------||
|------------------------------|-------------------------||
|------------------------------|-------------------------||


[ Tab from: http://www.guitartabs.cc/tabs/m/metallica/jump_in_the_fire_tab.html ]
|| ----------------|----------------|----------------|-------------- 2|
|| ----------------|----------------|----------------|-------------- ||
||*------------3---|----------------|-----------5----|-x-x-x-6------*||
||*------------3---|---3---3---3----|-----------5----|-x-x-x-6------*||
|| ------------1---|---3---3---3----|-----------3----|-x-x-x-4------ ||
|| 1-3-3-1-3-0-----|---1---1---1---1|-3-3-1-3-0------|-------------- ||
|
|  Verse 3
|| ----------------|----------------|----------------|-------------- 2|
|| ----------------|----------------|----------------|-------------- ||
||*------------3---|----------------|-----------5----|-x-x-x-6------*||
||*------------3---|---3---3---3----|-----------5----|-x-x-x-6------*||
|| ------------1---|---3---3---3----|-----------3----|-x-x-x-4------ ||
|| 1-3-3-1-3-0-----|---1---1---1---1|-3-3-1-3-0------|-------------- ||



|-----------------|----------------|----------------|----------------||
|-----------------|---1---1---1----|----------------|----------------||
|-------------3---|---2---2---2----|-----------5----|-------6---6-x--||
|-------------3---|---3---3---3----|-----------5----|-------6---6-x--||
|-------------1---|---3---3---3----|-----------3----|-------4---4-x--||
|-1-3-3-1-3-0-----|---1---1---1---1|-3-3-1-3-0------|----------------||
|
|
|-----------------|----------------|----------------|----------------||
|-----------------|---1---1---1----|----------------|----------------||
|-------------3---|---2---2---2----|-----------5----|-------6---6-x--||
|-------------3---|---3---3---3----|-----------5----|-------6---6-x--||
|-------------1---|---3---3---3----|-----------3----|-------4---4-x--||
|-1-3-3-1-3-0-----|---1---1---1---1|-3-3-1-3-0------|----------------||


     Chorus
|| ----------------|----------------|----------------|----------------|
|| ----------------|----------------|----------------|----------------|
||*----------------|----------------|----------------|--5-------3-----|
||*--------3-------|--------3-------|--------3-------|--5-------3-----|
|| ----3-4---5-4-3-|----3-4---5-4-3-|----3-4---5-4-3-|--3-------1-----|
|| 3-6-------------|3-6-------------|3-6-------------|----------------|
|
|
|| ----------------|----------------|----------------|----------------|
|| ----------------|----------------|----------------|----------------|
||*----------------|----------------|----------------|--5-------3-----|
||*--------3-------|--------3-------|--------3-------|--5-------3-----|
|| ----3-4---5-4-3-|----3-4---5-4-3-|----3-4---5-4-3-|--3-------1-----|
|| 3-6-------------|3-6-------------|3-6-------------|----------------|
 


|-----------------|----------------|----------------|----------------|
|-----------------|----------------|----------------|----------------|
|-----------------|----------------|----------------|---5-------3----|
|---------3-------|--------3-------|3-------3-------|---5-------3----|
|-----3-4---5-4-3-|----3-4---5-4-3-|--5-4-3---5-4-3-|---3-------1----|
|-3-6-------------|3-6-------------|----------------|----------------|
|
|
|-----------------|----------------|----------------|----------------|
|-----------------|----------------|----------------|----------------|
|-----------------|----------------|----------------|---5-------3----|
|---------3-------|--------3-------|3-------3-------|---5-------3----|
|-----3-4---5-4-3-|----3-4---5-4-3-|--5-4-3---5-4-3-|---3-------1----|
|-3-6-------------|3-6-------------|----------------|----------------|



|----------------|----------------|-------------------|
|----------------|----------------|-------------------|
|----------------|----------------|-------------------|
|---------3------|---------3------|-3-h5-3---3--------|
|-----3-4---5-4-3|-----3-4---5-4-3|--------5---5-4-3--|
|-3-6------------|-3-6------------|------------------3|
|
|
|----------------|----------------|-------------------|
|----------------|----------------|-------------------|
|----------------|----------------|-------------------|
|---------3------|---------3------|-3-h5-3---3--------|
|-----3-4---5-4-3|-----3-4---5-4-3|--------5---5-4-3--|
|-3-6------------|-3-6------------|------------------3|



|----------------|----------------|----------------|----------------|
|----------------|----------------|----------------|----------------|
|----------------|----------------|----------------|----------------|
|---------3-5----|--------3-------|--------3-------|3-------3-------|
|---3-4-5--------|----3-4---5-4-3-|----3-4---5-4-3-|--5-4-3---5-4-3-|
|-6--------------|3-6-------------|3-6-------------|----------------|
|
|
|----------------|----------------|----------------|----------------|
|----------------|----------------|----------------|----------------|
|----------------|----------------|----------------|----------------|
|---------3-5----|--------3-------|--------3-------|3-------3-------|
|---3-4-5--------|----3-4---5-4-3-|----3-4---5-4-3-|--5-4-3---5-4-3-|
|-6--------------|3-6-------------|3-6-------------|----------------|



|---------------- 1|-----------------------------------------------|
|---------------- ||-----------------------------------------------|
|---5-------3----*||-------------------------------------3---------|
|---5-------3----*||-------------------------------------3---------|
|---3-------1---- ||-------------------------------------1---------|
|---------------- ||-1-----3-----3-----1-----3-----0---------------|
|
|                   Outro Solo
|---------------- 1|-----------------------------------------------|
|---------------- ||-----------------------------------------------|
|---5-------3----*||---------------------------------------15-15-17|
|---5-------3----*||------------------15-15-17-15----15-17---------|
|---3-------1---- ||------13-13-15-17-------------17---------------|
|---------------- ||13-15------------------------------------------|



|------------------------------------------------|
|------------------------------------------------|
|------------------------------------------------|
|-----------3-----------3-----------3------------|
|-----------3-----------3-----------3------------|
|-----------1-----------1-----------1-----------1|
|
|
|----------------------18-15-------------------18|
|-------------15-18-15-------18-15----15-18-15---|
|-17-15----19----------------------19------------|
|-------17---------------------------------------|
|------------------------------------------------|
|------------------------------------------------|



|------------------------------------------------|
|------------------------------------------------|
|-----------------------------------5------------|
|-----------------------------------5------------|
|-----------------------------------3------------|
|-----3-----3-----1-----3-----0------------------|
|
|
|-15-------------------18-15---------------------|
|----18-15----15-18-15-------18-15----15-15-18-18|
|----------19----------------------19------------|
|------------------------------------------------|
|------------------------------------------------|
|------------------------------------------------|



|-----------------------------|----------------------------------|
|-----------------------------|----------------------------------|
|----x-----x--x--6------------|--------------------3-------------|
|----x-----x--x--6------------|--------------------3-------------|
|----x-----x--x--4------------|--------------------1-------------|
|-------------------------1--3|----3-----1-3-0-------------------|
|
|
|-------------------------------|-------18-20-----18-20--18-20-18-15|
|-15-------------------18-20-20-|-18-15-----------------------------|
|----17-15----15-19-------------|-----------------------------------|
|----------17-------------------|-----------------------------------|
|-------------------------------|-----------------------------------|
|-------------------------------|-----------------------------------|



|----------------------------------|
|----------------------------------|
|----------------------------------|
|--3-----3------3------------------|
|--3-----3------3------------------|
|--1-----1------1--------1-----3---|                          
|
|
|----15--------------15-18-15----15|
|-18----18-20--18-20----------18---|
|----------------------------------|
|----------------------------------|
|----------------------------------|
|----------------------------------|



|--------------------------------------|------------------------------|
|--------------------------------------|------------------------------|
|-----------------------5------------x-|x-x----6----------------------|
|-----------------------5------------x-|x-x----6----------------------|
|-----------------------3------------x-|x-x----4----------------------|
|--3-----1-----3-----0-----------------|--------------------1--3-----3|
|
|
|-18-15--------------------------------|------------------------------|
|-------18-15-18-15--------------18----|---18-----18-15-18-20-18-20-18|
|-------------------17-15----15--17-19-|---17-19--17------------------|
|-------------------------17-----------|------------------------------|
|--------------------------------------|------------------------------|
|--------------------------------------|------------------------------|



|------------------------------------|
|------------------------------------|
|----------------3-------------------|
|----------------3-----------------3-|
|----------------1-----------------3-|
|-----1--3--0----------------------1-|
|
|
|------------------------------------|
|-15---------------------------------|
|----17-15----15---17-19-17-15----15-|
|----------17------------------17----|
|------------------------------------|
|------------------------------------|



|--------------------------------------|
|--------------------------------------|
|--------------------------------------|
|--------3--------3--------------------|
|--------3--------3--------------------|
|--------1--------1--------1--3----3---|
|
|
|--------------------------------------|
|-------------------------15-18-15-----|
|-17-19-15-17-15----15-19------------17|
|----------------17--------------------|
|--------------------------------------|
|--------------------------------------|



|-------------------------------------|---------------------------------|
|-------------------------------------|---------------------------------|
|---------------5---------------x--x--|x----6---------------------------|
|---------------5---------------x--x--|x----6---------------------------|
|---------------3---------------x--x--|x----4---------------------------|
|1----3----0--------------------------|------------------1----3-----3---|
|
|
|-------------------------------------|---------------------------------|
|-------------------------------------|--------------------15---18-15-18|
|--15--------15---17-19-17-15----15-19|-15-17-15----15--19--------------|
|-------17--------------------17------|----------17---------------------|
|-------------------------------------|---------------------------------|
|-------------------------------------|---------------------------------|



|-----------------------------------------------|
|-----------------------------------------------|
|------------------3---------------------------|
|-------------------3--------------------3------|
|-------------------1--------------------3------|
|-1-----3-----0--------------------------1------|
|
|
|-----------------------------------------------|
|15----15-18-15-18-15----15-18-15-18-15----15-18|
|---19----------------19----------------19------|
|-----------------------------------------------|
|-----------------------------------------------|
|-----------------------------------------------|



|-----------------------------------------------|
|-----------------------------------------------|
|-----------------------------------------------|
|----3-----------3------------------------------|
|----3-----------3------------------------------|
|----1-----------1-----------1-----3-----3-----1|
|
|
|-----------------------------------------------|
|15-18-15----15-18-15----15-18-15-18-15----15-18|
|---------17----------17----------------17------|
|-----------------------------------------------|
|-----------------------------------------------|
|-----------------------------------------------|



|--------------------------------------------|
|--------------------------------------------|
|-----------------5-----------------x-----x-x|
|-----------------5-----------------x-----x-x|
|-----------------3-----------------x-----x-x|
|-----3-----0--------------------------------|
|
|                                      
|--------------------------------------------|
|-15-15-18-15----15-18-15-15-18-15-15-18-15--|
|-------------17-----------------------------|
|--------------------------------------------|
|--------------------------------------------|
|--------------------------------------------|



|-------------------------------------|
|-------------------------------------|
|-----6-------------------------------|
|-----6-------------------------------|
|-----4-------------------------------|
|------------------1-----3-----3-----1|
|
|
|-----------15-17-15-15-15-18-15-15-15|
|-18-20-------------------------------|
|-------------------------------------|
|-------------------------------------|
|-------------------------------------|
|-------------------------------------|



|------------------------------------------------|
|------------------------------------------------|
|-----------------3------------------------------|
|-----------------3--------------------3---------|
|-----------------1--------------------3---------|
|-----3-----0--------------------------1---------|
|
|
|-20-15-15-15-18-15-15-15-17-15-15-15-18-15-15-15|
|------------------------------------------------|
|------------------------------------------------|
|------------------------------------------------|
|------------------------------------------------|
|------------------------------------------------|



|------------------------------------------------|
|------------------------------------------------|
|------------------------------------------------|
|--3-----------3---------------------------------|
|--3-----------3---------------------------------|
|--1-----------1-----------1-----3-----3-----1---|
|
|
|-20-15-15-15-18-15-15-15-17-15-15-15-18-15-15-15|
|------------------------------------------------|
|------------------------------------------------|
|------------------------------------------------|
|------------------------------------------------|
|------------------------------------------------|



|-----------------------------------------------|
|-----------------------------------------------|
|-------------5-----------------x-----x-----x---|
|-------------5-----------------x-----x-----x---|
|-------------3-----------------x-----x-----x---|
|-3-----0---------------------------------------|
|
|
|-20-15-15-15-18-15-15-15-17-15-15-15-18-15-15-15|
|------------------------------------------------|
|------------------------------------------------|
|------------------------------------------------|
|------------------------------------------------|
|------------------------------------------------|



|------------------------------------------------|
|------------------------------------------------|
|--6---------------------------------------------|
|--6---------------------------------------------|
|--4---------------------------------------------|
|-----------------------1-----3-----3-----1-----3|
|
|
|-20-15-15-15-18-15-15-15-17-15-15-15-18-15-15-15|
|------------------------------------------------|
|------------------------------------------------|
|------------------------------------------------|
|------------------------------------------------|
|------------------------------------------------|



|------------------------------------------------|
|------------------------------------------------|
|-----------3------------------------------------|
|-----------3--------------------3-----------3---|
|-----------1--------------------3-----------3---|
|-----0--------------------------1-----------1---|
|
|
|-20-15-15-15-22-15-15-15-20-15-15-15-18-15-15-15|
|------------------------------------------------|
|------------------------------------------------|
|------------------------------------------------|
|------------------------------------------------|
|------------------------------------------------|



|------------------------------------------------|
|------------------------------------------------|
|------------------------------------------------|
|--------3---------------------------------------|
|--------3---------------------------------------|
|--------1-----------1-----3-----3-----1-----3---|
|
|
|-17-15-15-15-18-15-15-15-20-15-15-15-18-15-15-15|
|------------------------------------------------|
|------------------------------------------------|
|------------------------------------------------|
|------------------------------------------------|
|------------------------------------------------|



|------------------------------------------------|
|------------------------------------------------|
|--------5-----------------x-----x-----x-----6---|
|--------5-----------------x-----x-----x-----6---|
|--------3-----------------x-----x-----x-----4---|
|--0---------------------------------------------|
|
|
|-17-15-15-15-20-15-15-15-18-15-15-15-17-15-15-15|
|------------------------------------------------|
|------------------------------------------------|
|------------------------------------------------|
|------------------------------------------------|
|------------------------------------------------|



|---------------------------------------------|
|---------------------------------------------|
|---------------------------------------------|
|---------------------------------------------|
|---------------------------------------------|
|--------------1-----3-----3-----1-----3-----0|
|
|
|-18-15-------18-15-15-18-15----15-18-15-18-15|
|-------18-15----------------18---------------|
|---------------------------------------------|
|---------------------------------------------|
|---------------------------------------------|
|---------------------------------------------|



|------------------------------------------------|
|------------------------------------------------|
|-----3------------------------------------------|
|-----3--------------------3-----------3---------|
|-----1--------------------3-----------3---------|
|--------------------------1-----------1---------|
|
|
|----15-18-15-18-15----15-18-15-18-15----15-18-15|
|-18----------------18----------------18---------|
|------------------------------------------------|
|------------------------------------------------|
|------------------------------------------------|
|------------------------------------------------|              



|-----------------------------|--------------------------------------|
|-----------------------------|--------------------------------------|
|-----------------------------|-5--------------x---x----x-----6------|
|-3---------------------------|-5--------------x---x----x-----6------|
|-3---------------------------|-3--------------x---x----x-----4------|
|-1------1--3----3--1----3--0-|--------------------------------------|
|
|
|----18-20-18-20---18-15------|15-18-20-18-15----15-18-18-20-20-18-15|
|--------------------------18-|---------------18---------------------|
|-----------------------------|--------------------------------------|
|-----------------------------|--------------------------------------|
|-----------------------------|--------------------------------------|
|-----------------------------|--------------------------------------|



|------------------------------------------------|
|------------------------------------------------|
|-----------------------------------------------3|
|-----------------------------------------------3|
|-----------------------------------------------1|
|-----------1-----3-----3-----1-----3-----0------|
|
|
|-18-15----15------------------------------------|
|-------18----18-15-18-15----15------------------|
|-------------------------17----17-15-17-15----15|
|-------------------------------------------17---|
|------------------------------------------------|
|------------------------------------------------|



|-----------------------------|----------------------------------|
|-----------------------------|----------------------------------|
|-----------------------------|--------------------------------5-|
|-----------------3-----3---3-|--------------------------------5-|
|-----------------3-----3---3-|--------------------------------3-|
|-----------------1-----1---1-|----1--3----3----1----3----0------|
|
|
|-----------------------------|----------------------------------|
|-----------------------------|----------------------------------|
|----15-17-17-19-17-15--------|---15-17-15--------15---17---15---|
|-17--------------------------|17------------17------------------|
|-----------------------------|----------------------------------|
|-----------------------------|----------------------------------|



|------------------------------|------------------------|
|------------------------------|------------------------|
|--------x--x--x--6------------|--------------------3---|
|--------x--x--x--6------------|--------------------3---|
|--------x--x--x--4------------|--------------------1---|
|------------------------------|--1--3--3--1--3--0------|
|
|
|------------------------------|------------------------|
|-17-18-17-18-17-18------------|------------------------|
|-17-19-17-19-17-19-17-15-17-15|------------------------|
|------------------------------|-17-15------------------|
|------------------------------|-------17-15-13-15-13-15|
|------------------------------|------------------------|



|--------------------------|-----------------------------|
|--------------------------|-----------------------------|
|--------------------------|-------------------5---------|
|-----------3----3----3----|-------------------5---------|
|-----------3----3----3----|-------------------3---------|
|-----------1----1----1----|-1--3--3--1--3--0------------|
|
|
|--------------------------|-----------------------------|
|--------------------------|-----------------------------|
|--------------------------|------------15-17-17-19-17-15|
|--------------------------|------15-17------------------|
|-17-15-13----13--------13-|15-17------------------------|
|----------15--------15----|-----------------------------|



|------------------------------|-----------------------------------|
|------------------------------|-----------------------------------|
|---x--x--x----6---------------|----------------------------3------|
|---x--x--x----6---------------|----------------------------3------|
|---x--x--x----4---------------|----------------------------1------|
|-----------------------------1|----3-----3-----1-----3--0---------|
|
|
|------------------------------|-----------------------------------|
|-------------------------18---|---18-------18-------18-18-18-18-18|
|-17-15----15----15-17-19----17|19----17-19----17-19----17-19-17-19|
|-------17----17---------------|-----------------------------------|
|------------------------------|-----------------------------------|
|------------------------------|-----------------------------------|



|------------------------|----------------|----------------|
|------------------------|----------------|----------------|
|------------------------|----------5-----|x-x-x-6---------|
|----3-------3-----3-----|----------5-----|x-x-x-6---------|
|----3-------3-----3-----|----------3-----|x-x-x-4---------|
|----1-------1-----1---1-|3-3-1-3-0-------|----------------|
|
|
|------------------------|----------------|----------------|
|-18---18-18---18--------|----------------|----------------|
|-17---19-17---19--------|----------------|x-x-x-6---------|
|------------------------|----------------|x-x-x-6---------|
|------------------------|----------------|x-x-x-4---------|
|------------------------|----------------|----------------|



|-----------------|----------------|----------------|----------------|
|-----------------|----------------|----------------|----------------|
|-----------------|----------------|5---------------|3-3-------------|
|---------3-------|--------3-------|5---------------|3-3-------------|
|-----3-4---5-4-3-|----3-4---5-4-3-|3---------------|1-1-------------|
|-3-6-------------|3-6-------------|----------------|----------------|
|
|
|-----------------|----------------|----------------|----------------|
|-----------------|----------------|----------------|----------------|
|-----------------|----------------|5---------------|3-3-------------|
|---------3-------|--------3-------|5---------------|3-3-------------|
|-----3-4---5-4-3-|----3-4---5-4-3-|3---------------|1-1-------------|
|-3-6-------------|3-6-------------|----------------|----------------|



|----------------|
|----------------|
|----------------|
|-5--------------|
|-5--------------|
|-3--------------|
|
|
|----------------|
|----------------|
|----------------|
|-5--------------|
|-5--------------|
|-3--------------|
Comments