Metallica - Its Electric Chords & Tabs

 

Its Electric Chords & Tabs

Metallica Chords & Tabs

Version: 3 Type: Bass Tab 0 ratings
1 star 2 stars 3 stars 4 stars 5 stars
comments

Its Electric Bass Tab

  The bass doesn't start until 0:06.

Riff 1
G|-----------------------------------|
D|-----------------------------------|   
A|-----------0------0-------0-2-2----|
E|-2-2-2-2----2-2----2-2-------------|

Riff 2
G|----------------------------|
D|--------------------0-0-----|
A|-2-2-2-2-2---2-2------2-----|
E|----------------------------|

Riff 3
G|---------------|
D|---------------|
A|---------0-----|
E|-0-2-------2---|

Riff 4
G|---------------------------------------------|
D|---------------------------------------------|
A|-7-7-7-7--6-6-6-6--5-5-5-5--4-4-4-4----------|
E|---------------------------------------------|

Riff 5
G|---------------------|
D|---------------------|
A| 7-6-5-4---0-2-2-----|
E|---------------------|
[ Tab from: http://www.guitartabs.cc/tabs/m/metallica/its_electric_btab_ver_3.html ]
Riff 6
G|------------------------------------------|
D|------------------------------------------|
A|----------------------------------------0-|
E|-0-2-2-2---0-2-2-2---0-2-2-2-2-2----------|

Riff 7
G|------------------------------------------------------------------------------------------------|
D|------------------------------------------------------------------------------------------------|
A|------------------------------------------------------------------------------------------------|
E|-0-2-2-2---0-2-2-2---0-2-2-2---0-2-2-2---0-2-2-2---0-2-2-2---0-2-2-2---0-2-2-2-2|

End
G|-----------|
D|-----------|
A|-----------|
E|-0-2~------|

 Riff 1 x2
 Riff 2 x1
 Riff 3 x8
 Riff 1 x8
 Riff 2 x1
 Riff 3 x8
 Riff 1 x8
 Riff 2 x1
 Riff 1 x4
 Riff 4 x2
 Riff 1 x3
 Riff 5 x1
 Riff 6 x4
 Riff 7 x4
 Riff 1 x9
 Riff 2 x1
 End

    enjoy.  please rate
Comments