Metallica - I Disappear Chords & Tabs

 

I Disappear Chords & Tabs

Metallica Chords & Tabs

Version: 7 Type: Tab 0 ratings
1 star 2 stars 3 stars 4 stars 5 stars
comments

I Disappear Tab

Name: Matt Woodley

Tabs: Matt Woodley
http://members.tripod.com/badseed_08/
"Guitallica - Guitar in the Metallica Style"

Metallica - "I Disappear"
Written by Hetfield and Ulrich
Recorded on the Mission: Impossible II Soundtrack

1a)    ^1/2V         ^1/2V
eb--x----------x--x--------
Bb--x----------x--x--------
Gb--x--9--(9)--x--x--9--(9)
Db--x----------x--x--------
Ab--x--7--(7)--x--x--7--(7)
Eb--0----------0--0--------
Use upstrokes on the open Eb notes

1c)
Gb---------------------------
Db---------------------------
Ab---------------------------
Eb--x-x-x-x-x-x-x-x-x-x-x-x-x
Strike in the area of fret 2.9


2)     ^1/2V         ^1/2V         ^1/2V         ^1/2V
Db---------------------------------------------------------------
Ab-----7--(7)--7-----7--(7)--7-----7--(7)--7-----7--(7)--5--5---2
Eb--0--7--(7)--5--0--7--(7)--5--0--7--(7)--5--0--7--(7)--3--3---0


3a)
Db--------------------------------------
Ab--2--2--2---2--2--2---2--2--2---5-5--2
Eb--0--0--0---0--0--0---0--0--0---3-3--0
    ....      ....      ....
Hey, hey, hey, here I go now


3b)
Bb--12\--------12\
Gb--12\--------12\
Db--12\--------12\
Ab----------------
Eb-------0--0-----
         ....
Insert this when you hear it, as you hear it


4a)                         ^1/4
Gb-------------------------------
Db--5-5--4-4--7-7---------7-7----
Ab------------------------------2
Eb--3-3--2-2--5-5--0-2-0--5-5---0
Guitar 1
    
I'm pain, I'm hope, I'm suffer

4b)
Gb--4-4--2-2--6-6--2-4-2--6-7----
Db-------------------------------
Ab--2-2--0-0--4-4--0-2-0--4-5---2
Eb------------------------------0
Guitar 2

[ Tab from: http://www.guitartabs.cc/tabs/m/metallica/i_disappear_tab_ver_7.html ]
5a)            ***************   ** (harmonics, 
let ring)
eb----------------------------  -12
Bb----------------------------  ---
Gb-------------5--------------  --- Later chorus', in 
Db----------------4--5--------  --- place of the '12'
Ab--5--4-----------------5----  --- on the low E
Eb--3--2--0-----------------12  ---

          Do you bury me when I'm gone?

5b)Second time only
eb-----------0-------------------
Bb-------------3-------------0---
Gb---------------2-0-------2-----
Db-----------------------2-------
Ab--5--4--2----------------------
Eb--3--2--0----------------------


6)
eb-----------------------------    ------------------------------------
Bb-----8--8---8----------------    ------------------------------------
Gb-----7--7---7-------------12~    -14p12----14p12----14p12----14p12---
Db-----6--6---6-------12h14---- x3 -------14-------14-------14-------14
Ab-----7--7---7----------------    ------------------------------------
Eb--0-------------/14----------    ------------------------------------


7a)    ^V                 7b) ^V 
Gb-------------- ------   ----9----- ------
Db-------------- ------   ---------- ------
Ab--2-----2--5-5 -5-4-3   ----7--5-5 -5-4-3
Eb--0--3--0--3-3 -3-2-1   -0-----3-3 -3-2-1
Guitar 1          .....   Guitar 2    .....


8a) James
Gb------------------------4-5---------4-2---------2--
Db--2---------4-5---------4-5---------4-2---------2--
Ab--2---------4-5---------2-3--3-3-3--2-0--0-0-0--0--
Eb--0--0-0-0--2-3--3-3-3----------------------------3
       .....       .....       .....       .....

8b)
Gb------------------------4-5---------4-7-------
Db--2---------4-5---------4-5---------4-7-------
Ab--2---------4-5---------2-3--3-3-3--2-5--5-5-5
Eb--0--0-0-0--2-3--3-3-3------------------------
       .....       .....       .....       .....

Visit http://members.tripod.com/badseed_08/ "Guitallica" for many more 
accurate, original tabs of Metallica songs.
Comments