Metallica - I Disappear Chords & Tabs

 

I Disappear Chords & Tabs

Metallica Chords & Tabs

Version: 6 Type: Tab 0 ratings
1 star 2 stars 3 stars 4 stars 5 stars
comments

I Disappear Tab

   
name: Alex Harbin

artist: Metallica

SongTitle: I Dissapear

Tabs: Artist:Metallica
Song:I dissapear
Album:MI2 soundtrack
Transcribed by:Alex Harbin

_________________________________________________________________

All guitars tuned down 1/2 step

Riff A

eb------------------------------------------|
Bb-------v----------v-----------v-----------|
Gb-------5----------5-----------5-----------|
Db--2--------2-2---------2-2----------2-2---|
Ab--2--------2-2---------2-2----------2-2---|
Eb--0--------0-0---------0-0----------0-0---|

Riff B

eb----------------|-------------------------|
Bb----------------|-------------------------|
Gb----------------|-------------------------|
Db--2---v---7-----|-v---7---2---v---7---2---|
Ab--2---7---7---2-|-7---7---2---7---7---2---|
Eb--0---7---5---0-|-7---5---0---7---5---0---|

|-------------|
|-------------|
|-------------|
|--5---5---2--|
|--5---5---2--|
|--3---3---0--|

Riff C
[ Tab from: http://www.guitartabs.cc/tabs/m/metallica/i_disappear_tab_ver_6.html ]
eb---------|--------|-------|---------|------------|
Bb---------|--------|-------|---------|------------|
Gb---------|--------|-------|---------|------------|
Db--2-2-2--|-2-2-2--|-2-2-2-|--2-2-2--|--5-5---2---|
Ab--2-2-2--|-2-2-2--|-2-2-2-|--2-2-2--|--5-5---2---|
Eb--0-0-0--|-0-0-0--|-0-0-0-|--0-0-0--|--3-3---0---|
Hey  Hey  Hey

Riff D
eb---------|--------|------------|--------------|
Bb---------|--------|------------|--------------|
Gb---------|--------|------------|--------------|
Db---5--5--|--4--4--|---4--7--7--|------7---2---|
Ab---5--5--|--4--4--|---4--7--7--|---7--7---2---|
Eb---3--3--|--2--2--|---2--5--5--|---7--5---0---|
Im pain   Im  hope   Im suffer

Riff E

eb---------|-----------|
Bb---------|-----------|
Gb---------|-----------|
Db--5---5--|---4---2---|
Ab--5---5--|---4---2---|
Eb--3---3--|---2---0---|
left for me

Riff F

eb---15--14-----------------------15-----14----------|
Bb------------15--------------------------------15---|
Gb-----------------14--------------------------------|
Db---------------------------------------------------|
Ab---------------------------------------------------|
Eb-------------------------12------------------------|
     Do you bury me when  Im gone


Comments